歌手头像-唐朝樂隊

太陽

1 2 3 4 5
x

音乐人: 唐朝樂隊

供谱者:mix

|----------------------|---------------|-----------------|---------
|-1~3---------1~3--3~5-|-3-------3~5-3-|-1---1---1~3-3~5-|-3-------
|----------------------|---------------|---0-------------|---------
|----------------------|---------------|-----------------|---------
|----------------------|---------------|-----------------|---------
|----------------------|---------------|-----------------|---------
|
|
|--------------------------------------|---------------------------
|--------------------------------------|---------------------------
|---0---0-------0----0-----......------|---0---0--......-----------
|-----4-----------4--------......------|-----2----......-----------
|-5-----------5------------......------|-3--------......-----------
|--------------------------------------|---------------------------

|
|-8~10------8~10-10~12-|-10----10~12~10|-8---8---8~10-10~12|-10----
|----------------------|---------------|---8---------------|-------
|----------------------|---------------|-------------------|-------
|----------------------|---------------|-------------------|-------
|----------------------|---------------|-------------------|-------
|----------------------|---------------|-------------------|-------
|
|
|------------------------------------------------------------------
|------------------------------------------------------------------
|---0---0-----0---0-----......-------------------------------------
|-----4---------4-------......-------------------------------------
|-5---------5-----------......-------------------------------------
|------------------------------------------------------------------

  ___                 ___                ___             ___
  =======   ========  ======= =======    ======= ======= ======= =======
| |-|-|-|   |--|-|-|  |-|-|-| |-|-|-|  | |-|-|-| |-|-|-| |-|-|-| |-|-|-| |
| |-|-|-|   |--|-|-|  |-|-|-| |-|-|-|  | |-|-|-| |-|-|-| |-|-|-| |-|-|-| |
| |-|-|-|   |--|-|-|  |-|-|-| |-|-|-|  | |-|-|-| |-|-|-| |-|-|-| |-|-|-| |
|-7~9~7-11~11-11-9-7--5~7~5-5~5-9-7-5  |-4~5~4-4~4-7-5~7-2-2-2-2~2-5-4~7-|
|-0-----0-----0--0-0--0-----0---0-0-0--|-0-----0---0-0---0-0-0-0---0-0---|
|-0-------------------0----------------|-0-------------------------------|
|--------------------------------------|---------------------------------|

  ___                 ___
  =======   ========  ======= =======
| |-|-|-|   |--|-|-|  |-|-|-| |-|-|-|  |
| |-|-|-|   |--|-|-|  |-|-|-| |-|-|-|  |
| |-|-|-|   |--|-|-|  |-|-|-| |-|-|-|  |
|-7~9~7-11~11-11-9-7--5~7~5-5~5-9-7-5  |
|-0-----0-----0--0-0--0-----0---0-0-0--|
|-0-------------------0----------------|
|--------------------------------------|

  ======= ======= =============== ===========
| |-|-|-| |-|-|-| |-|-|-|-|-|-|-| |-|-|-|-|-| |
| |-|-|-| |-|-|-| |-|-|-|-|-|-|-| |-|-|-|-|-| |
| |-|-|-| |-|-|-| |-|-|-|-|-|-|-| |-|-|-|-|-| |
|-4-5-4-4~4-7-5-4-9~7~7~9-9~5~5~7-7~2-2-2-5-7 |
|-0-----0---0-0-0-0---0-0-0---0-0-0---0-0-0-0 |
|-0---------------0-------0-------0---------- |
|-------------------------------------------- |

A9                    A9      Em9   A9                  A9
當我面對這無人的戈壁, 我忘了我自己. 雖然已經期待的漫長, 可看到你還是驚奇.

D9        D         A9                      D9        D       E
多少激動, 多少嘆息, 在生命中越來越沒有意義. 於是我開始信賴你, 象我們祖先

                B         D             E           B
一樣神祕, 喔...(你看到沙洲漫漫點點荒綠, 你看到一個人變老然後死去)

E           A   E           A      E           A
太陽, 你在哪裏? 太陽, 你在哪裏.....太陽, 我在這裏....
添加到谱单
X

添加到谱单

《 太陽 -- 唐朝樂隊 》加入
◎ 选择已有谱单 创建新的

公开 (默认不公开,欢迎创建有意思的"公开谱单")

创建取消

推荐语(选填)

X

请先登录chord4


忘记密码