歌手头像-唐朝樂隊

月夢 (間奏)

1 2 3 4 5
x

音乐人: 唐朝樂隊

供谱者:mix
Chords used are

#Cm9/#G   x x 6 6 4 0
#Cm9/A    x 0 x 6 4 0 
#Fm       2 4 4 2 2 2
E         0 2 2 1 0 0





#Cm9/#G                                 #Cm9/A
|--------------------------------------|---------------------------------------|
|-----------------------------5h7------|---7s9------------------9s7---7s9------|
|---------------------4s6--------------|---------------------------------------|
|--------------------------------------|---------------------------------------|
|--------------------------------------|---------------------------------------|
|--------------------------------------|---------------------------------------|





#Cm9/#G                                 #Cm9/A
|---------9----7-----------------------|---------------------------------------|
|---7s9-----9----9----7s5--------------|---------------------------------------|
|----------------------------4s6---6---|-------------------4s6------9----8-----|
|--------------------------------------|---------------------------------------|
|--------------------------------------|---------------------------------------|
|--------------------------------------|---------------------------------------|

#Cm9/#G                                 #Cm9/A
|--------------------------------------|---------------------------------------|
|--------------------------------------|---------------------------------------|
|---4s6---6-----------------6---6------|---6s9---------------------------------|
|--------------6---4-------------------|---------------------------------------|
|--------------------------------------|----------11----9s7---7s6---6s4--------|
|--------------------------------------|---------------------------------------|

#Cm9/#G                                 #Cm9/A
|--------------------------------------|---------------------------------------|
|--------------------------------------|------------7-------7s9----------------|
|--------------------------------------|--8s9----------------------------------|
|-----------------------------9---11---|---------------------------------------|
|---6s7s6--4--2---0h2s4s11-------------|---------------------------------------|
|--------------------------------------|---------------------------------------|


#Cm9/#G                                 #Cm9/A
|--------9---------7s9---9-------------|---------------------------------------|
|---9------9---------------------------|--9-----5s4--4------7--5s4-------------|
|--------------------------------------|-----------------------------4s6---6---|
|--------------------------------------|---------------------------------------|
|--------------------------------------|---------------------------------------|
|--------------------------------------|---------------------------------------|

#Cm9/#G                                 #Cm9/A
|--------------------------------------|---------------------------------------|
|-----------------------5--------------|---------------------------------------|
|---------4-----6-------------6--------|---------------------------------------|
|---6----------------------------------|-----7s6----------------2h4------------|
|--------------------------------------|---------------------------------------|
|--------------------------------------|---------------------------------------|

#Fm                                     E
|--------------------------------------|---------------------------------------|
|--------------------------------------|---------------------------------------|
|---------------------------4--4s6-----|--6s9----8------4s6------9----8--------|
|---4---4s7-----6--6s7-----------------|------------9----------------------9---|
|--------------------------------------|---------------------------------------|
|--------------------------------------|---------------------------------------|

#Fm                                     E
|--------------------------------------|--5------------5----5--7--7s9--7h9--9--|
|--7--5s4----4----5---5s7----5h7s9-----|----9--5--5h7-----9--------------------|
|--------------------------------------|---------------------------------------|
|--------------------------------------|---------------------------------------|
|--------------------------------------|---------------------------------------|
|--------------------------------------|---------------------------------------|

#Fm                                     E
|--9--14--9h12--12s14--12h14--14p12s9--|--7h9--12h14--12s14--14--16--16s17--17-|
|--------------------------------------|---------------------------------------|
|--------------------------------------|---------------------------------------|
|--------------------------------------|---------------------------------------|
|--------------------------------------|---------------------------------------|
|--------------------------------------|---------------------------------------|

#Fm 
|--9--12----12s14p12p9----5---4h5--5------4--5-----4--5--7---7s9s7-------------|
|-----------------------------------------------7--------------------7---------|
|------------------------------------------------------------------------------|
|------------------------------------------------------------------------------|
|------------------------------------------------------------------------------|
|------------------------------------------------------------------------------|


|--------------------------------4-----4-5-4---4-5-7-5-----4-5-7---7s9---------|
|-4h5p4-4----4-5----4-5-7-5---5-7-7---7------------------7---------------------|
|------6----6---6--------------------------------------------------------------|
|------------------------------------------------------------------------------|
|------------------------------------------------------------------------------|
|------------------------------------------------------------------------------|

添加到谱单
X

添加到谱单

《 月夢 (間奏) -- 唐朝樂隊 》加入
◎ 选择已有谱单 创建新的

公开 (默认不公开,欢迎创建有意思的"公开谱单")

创建取消

推荐语(选填)

X

请先登录chord4


忘记密码