歌手头像-巫啓賢

團圓

1 2 3 4 5
x

音乐人: 巫啓賢

供谱者:mix


   Intro:

   E||-------------------------|-------------------------|
   B||--1-------------1--------|--1-------------1--------|
   G||----------0-----------0--|----------0-----------0--|
   D||-------3-----------3-----|-------3-----------3-----|
   A||--0----------0-----------|-------------------------|
   E||-------------------------|--3----------3-----------|

   -------------------------|-----0--------------------|
   --1----------------------|-----------------1--------|
   ----------0-----------0--|-----------0-----------0--|
   -------3-----2/-1/-2-----|--------3-----------3-----|
   --3----------------------|--3-----------------------|
   -------------------------|--------------3-----------|

   -------------------------|-------------------------|
   --1-------------1--------|--1-------------1--------|
   ----------0-----------0--|----------0-----------0--|
   -------3-----------3-----|-------3-----------3-----|
   --0----------0-----------|-------------------------|
   -------------------------|--3----------3-----------|

   -------------------------|--0----------------|
   --1----------------------|--1----------------|
   ----------0-----------0--|-------------------|
   -------3-----2/-1/-2-----|-------------------|
   --3----------------------|--3----------------|
   -------------------------|-------------------|

   C          (B)      Am     (G)
   一個人孤孤單單走到海角天邊
        F      G       C      G
   偶爾想從前回味成長的酸和甜
   C          (B)      Am     (G)
   多希望有一天能再輕撫你的臉
         F    (E)   Dm (C)     G7
   再多的辛苦 披星戴月   心甘情願

       C      Am     F    G   Am
   全世界 走一遍 不枉來人間兜一圈
      Em      Am     G
   夢可以 很遙遠 狂風暴雨都不改變
       C      Am     F    G   Am
   全世界 心相連 用愛圍一個大圈圈
     Em       Am     F     G    C
   夢就算 再遙遠 心裏有家就會團圓

       D      Bm     G    A   Bm
   全世界 走一遍 不枉來人間兜一圈
      F#m     Bm     A
   夢可以 很遙遠 狂風暴雨都不改變
       D      Bm     G    A   Bm
   全世界 心相連 用愛圍一個大圈圈
     F#m      Bm     G     A    D
   夢就算 再遙遠 心裏有家就會團圓

       E      C#m    A    B   C#m
   全世界 走一遍 不枉來人間兜一圈
      G#m     C#m    B
   夢可以 很遙遠 狂風暴雨都不改變
       E      C#m    A    B   C#m
   全世界 心相連 用愛圍一個大圈圈
     G#m      C#m    A     B    E
   夢就算 再遙遠 心裏有家就會團圓
添加到谱单
X

添加到谱单

《 團圓 -- 巫啓賢 》加入
◎ 选择已有谱单 创建新的

公开 (默认不公开,欢迎创建有意思的"公开谱单")

创建取消

推荐语(选填)

X

请先登录chord4


忘记密码