歌手头像-王心凌

第一次愛的人

1 2 3 4 5
x

音乐人: 王心凌

供谱者:mix

0-------------3------0-----------------------0--------------
------2----------------------4-------0---------------4------
---1-----1-------3-------1-----------------------1----------
---------------------------------4-------4---------------4--
------------------------------------------------------------
------------------------------------------------------------

------------------------------------------------------------
--2-------------2-----------------4-----------2----1--------    #F 223442
---------2--------------2-----------------------------------    G3 334553
-----2------2-------4-------4-----------4-------------------
------------------------------------------------------------
------------------------------------------------------------
      BM    A        G               #F   
灰色的天你的臉 愛過也哭過笑過痛過之後只剩再見
      BM    A        G               #F
我的眼淚溼了臉 失去第一次愛的人竟然是這種感覺
     D     A          BM     A         
總以爲愛是全部的心跳 失去愛我們就要
G3        A            D             BM
就要一點點慢慢的死掉 當我失去你那一秒心突然就變老
G3                 D
the day you went away

     D                  BM       
喧鬧的街沒發現我的淚被遺忘在街角
G3                BM   G3                   BM                    G3                  #F
the day you went away(  the day you went away the day you went away the day you went away)

      BM    A         G               #F
我看着你走過街 還穿着去年夏天我送你的那雙球鞋
      BM    A         G               #F
銀色手煉還耀眼 你的世界似乎一點也沒有因此改變
      D    Bm            G3    D
*有一天也許我能把自己治好 再一次想起來應該要怎麼笑
      D    BM            G3    BM
 第一次愛的人它的壞他的好 卻像胸口刺青是永遠的記號
                    
 跟着我的呼吸直到停止心跳*

添加到谱单
X

添加到谱单

《 第一次愛的人 -- 王心凌 》加入
◎ 选择已有谱单 创建新的

公开 (默认不公开,欢迎创建有意思的"公开谱单")

创建取消

推荐语(选填)

X

请先登录chord4


忘记密码