歌手头像-許飛

我要的飛翔

1 2 3 4 5
x

音乐人: 許飛

供谱者:mix

Capo 3

前奏:
C                                      F             G
-------0--1---0-----0------------0--------1----------↑---
-----1-|--|---|-----|-3-3-1--3---|--------|-1---1----↑---
---0-|-|--|-0-|-0---|-|-|-|--|-0-|-0----2-|-|-2-|----↑---
---|-|-|--|-|-|-|---|-|-|-|--|-|-|-|--3-|-|-|-|-|----↑---
-3-|-|-|--|-|-|-|---|-|-|-|--|-|-|-|--|-|-|-|-|-|----↑---
-|-|-|-|--|-|-|-|---|-|-|-|--|-|-|-|--|-|-|-|-|-|----↑---
| | | |   | | | |    | | | |   | | | |   | | | | | |

C          F            C            F  
天氣冷暖不確定         每個人躲在人海里
C          F            C            F
相遇總是沒道理         弄錯後輕輕說對不起
Am           G             F G    C
沒關係不論失去了什麼      都沒痕跡 
Am           G          F              G
每一次讓淚水流回心裏去灌溉夢想開出奇蹟

C                  G             Am         Em
我要的堅強不是誰的肩膀 懷抱是個不能停留的地方
F             C                F             G
這世界多擁擠 就有多匆忙    用所有的寂寞時光給自己鼓掌
       C              G              Am        Em
我要的飛翔   不是借雙翅膀 自由是個不能代替的遠方 
F              C               F        G    C
用旅途的孤單 來收穫成長   直到遇見了你一起分享 

間奏:
C                                                                   F                       G
-------0--1---0-----0------------0-------------------------------------------1--------------↑---
-----1-|--|---|-----|-3-3-1--3---|----3-1-1-0--0^1-1-1-0------0------------1-|-1-------1----↑---
---0-|-|--|-0-|-0---|-|-|-|--|-0-|-0--|-|-|-|--|---|-|-|--2-.-|-2--------2-|-|-|-2-.-2-|----↑---
---|-|-|--|-|-|-|---|-|-|-|--|-|-|-|--|-|-|-|--|---|-|-|--|---|-|------3-|-|-|-|-|---|-|----↑---
-3-|-|-|--|-|-|-|---|-|-|-|--|-|-|-|--|-|-|-|--|---|-|-|--|---|-|----3-|-|-|-|-|-|---|-|----↑---
-|-|-|-|--|-|-|-|---|-|-|-|--|-|-|-|--|-|-|-|--|---|-|-|--|---|-|--1-|-|-|-|-|-|-|---|-|----↑---
| | | |   | | | |    | | | |   | | | |   | | | |   |    | | |   |    | |   | | | | | | | |    | |   
Am           G             F G    C
沒關係不論失去了什麼      都沒痕跡 
Am           G          F              G
每一次讓淚水流回心裏去灌溉夢想開出奇蹟

C                  G             Am         Em
我要的堅強不是誰的肩膀 懷抱是個不能停留的地方
F             C                F             G
這世界多擁擠 就有多匆忙    用所有的寂寞時光給自己鼓掌
       C              G              Am        Em
我要的飛翔   不是借雙翅膀 自由是個不能代替的遠方 
    F            C               F        G    C
用旅途的孤單 來收穫成長   直到遇見了你一起分享 

       C          G              Am            Em
我要的飛翔   不是借雙翅膀 自由是個不能代替的遠方 
    F           C               F        G    C
用旅途的孤單 來收穫成長   直到遇見了你一起分享 

C           G               F      G            C
呼~~~~~~~~~呼嗚嗚~~~~~~~~~嘿咦耶咦耶~~~~~~~~呼~~~~~ 

添加到谱单
X

添加到谱单

《 我要的飛翔 -- 許飛 》加入
◎ 选择已有谱单 创建新的

公开 (默认不公开,欢迎创建有意思的"公开谱单")

创建取消

推荐语(选填)

X

请先登录chord4


忘记密码