歌手头像-新褲子樂隊

我不想失去你

1 2 3 4 5
x

音乐人: 新褲子樂隊

供谱者:mix


節奏吉他一(掃弦)
  
                        G                        D  D  D  D  C  C  C  C   
E||------------------|----------3----3--3--3--|--2--2--2--2--0--0--0--0--|
B||------------------|----------0----0--0--0--|--3--3--3--3--1--1--1--1--|
G||------------------|--0----0--0----0--0--0--|--2--2--2--2--0--0--0--0--|
D||------------------|--0----0--0----0--0--0--|--0--0--0--0--2--2--2--2--|
A||------------------|--2----2----------------|--------------3--3--3--3--|
E||------------------|--3----3----------------|--------------------------|


  G                        D  D  D  D  C  C  C  C     G                      
----------3----3--3--3--|--2--2--2--2--0--0--0--0--|----------3----3--3--3--|
----------0----0--0--0--|--3--3--3--3--1--1--1--1--|----------0----0--0--0--|
--0----0--0----0--0--0--|--2--2--2--2--0--0--0--0--|--0----0--0----0--0--0--|
--0----0--0----0--0--0--|--0--0--0--0--2--2--2--2--|--0----0--0----0--0--0--|
--2----2----------------|--------------3--3--3--3--|--2----2----------------|
--3----3----------------|--------------------------|--3----3----------------|


  D  D  D  D  C  C  C  C     G                        D  D  D  D  C  C  C  C   
--2--2--2--2--0--0--0--0--|----------3----3--3--3--|--2--2--2--2--0--0--0--0--|
--3--3--3--3--1--1--1--1--|----------0----0--0--0--|--3--3--3--3--1--1--1--1--|
--2--2--2--2--0--0--0--0--|--0----0--0----0--0--0--|--2--2--2--2--0--0--0--0--|
--0--0--0--0--2--2--2--2--|--0----0--0----0--0--0--|--0--0--0--0--2--2--2--2--|
--------------3--3--3--3--|--2----2----------------|--------------3--3--3--3--|
--------------------------|--3----3----------------|--------------------------|


  G                        D    D  D    D  D  D     C    C  C    C  C  C   
----------3----3--3--3--|--2----2--2----2--2--2--|--0----0--0----0--0--0--|
----------0----0--0--0--|--3----3--3----3--3--3--|--1----1--1----1--1--1--|
--0----0--0----0--0--0--|--2----2--2----2--2--2--|--0----0--0----0--0--0--|
--0----0--0----0--0--0--|--0----0--0----0--0--0--|--2----2--2----2--2--2--|
--2----2----------------|------------------------|--3----3--3----3--3--3--|
--3----3----------------|------------------------|------------------------|


  G                        G                        D    D  D    D  D  D   
----------3----3--3--3--|----------3----3--3--3--|--2----2--2----2--2--2--|
----------0----0--0--0--|----------0----0--0--0--|--3----3--3----3--3--3--|
--0----0--0----0--0--0--|--0----0--0----0--0--0--|--2----2--2----2--2--2--|
--0----0--0----0--0--0--|--0----0--0----0--0--0--|--0----0--0----0--0--0--|
--2----2----------------|--2----2----------------|------------------------|
--3----3----------------|--3----3----------------|------------------------|


  C    C  C    C  C  C     G                        G                      
--0----0--0----0--0--0--|----------3----3--3--3--|----------3----3--3--3--|
--1----1--1----1--1--1--|----------0----0--0--0--|----------0----0--0--0--|
--0----0--0----0--0--0--|--0----0--0----0--0--0--|--0----0--0----0--0--0--|
--2----2--2----2--2--2--|--0----0--0----0--0--0--|--0----0--0----0--0--0--|
--3----3--3----3--3--3--|--2----2----------------|--2----2----------------|
------------------------|--3----3----------------|--3----3----------------|


  E                        C    C  C    C  C  C     G                      
----------0----0--0--0--|--0----0--0----0--0--0--|----------3----3--3--3--|
--0----0--0----0--0--0--|--1----1--1----1--1--1--|----------0----0--0--0--|
--1----1--1----1--1--1--|--0----0--0----0--0--0--|--0----0--0----0--0--0--|
--2----2--2----2--2--2--|--2----2--2----2--2--2--|--0----0--0----0--0--0--|
--2----2--2----2--2--2--|--3----3--3----3--3--3--|--2----2----------------|
--0----0----------------|------------------------|--3----3----------------|


  G                        E                        C    C  C    C  C  C   
----------3----3--3--3--|----------0----0--0--0--|--0----0--0----0--0--0--|
----------0----0--0--0--|--0----0--0----0--0--0--|--1----1--1----1--1--1--|
--0----0--0----0--0--0--|--1----1--1----1--1--1--|--0----0--0----0--0--0--|
--0----0--0----0--0--0--|--2----2--2----2--2--2--|--2----2--2----2--2--2--|
--2----2----------------|--2----2--2----2--2--2--|--3----3--3----3--3--3--|
--3----3----------------|--0----0----------------|------------------------|


  C    C  C    C  C  C     G                        D  D  D  D  C  C  C  C   
--0----0--0----0--0--0--|----------3----3--3--3--|--2--2--2--2--0--0--0--0--|
--1----1--1----1--1--1--|----------0----0--0--0--|--3--3--3--3--1--1--1--1--|
--0----0--0----0--0--0--|--0----0--0----0--0--0--|--2--2--2--2--0--0--0--0--|
--2----2--2----2--2--2--|--0----0--0----0--0--0--|--0--0--0--0--2--2--2--2--|
--3----3--3----3--3--3--|--2----2----------------|--------------3--3--3--3--|
------------------------|--3----3----------------|--------------------------|


  G                        D  D  D  D  C  C  C  C     G                      
----------3----3--3--3--|--2--2--2--2--0--0--0--0--|----------3----3--3--3--|
----------0----0--0--0--|--3--3--3--3--1--1--1--1--|----------0----0--0--0--|
--0----0--0----0--0--0--|--2--2--2--2--0--0--0--0--|--0----0--0----0--0--0--|
--0----0--0----0--0--0--|--0--0--0--0--2--2--2--2--|--0----0--0----0--0--0--|
--2----2----------------|--------------3--3--3--3--|--2----2----------------|
--3----3----------------|--------------------------|--3----3----------------|


  D    D  D    D  D  D     C    C  C    C  C  C     G                      
--2----2--2----2--2--2--|--0----0--0----0--0--0--|----------3----3--3--3--|
--3----3--3----3--3--3--|--1----1--1----1--1--1--|----------0----0--0--0--|
--2----2--2----2--2--2--|--0----0--0----0--0--0--|--0----0--0----0--0--0--|
--0----0--0----0--0--0--|--2----2--2----2--2--2--|--0----0--0----0--0--0--|
------------------------|--3----3--3----3--3--3--|--2----2----------------|
------------------------|------------------------|--3----3----------------|


  G                        D    D  D    D  D  D     C    C  C    C  C  C   
----------3----3--3--3--|--2----2--2----2--2--2--|--0----0--0----0--0--0--|
----------0----0--0--0--|--3----3--3----3--3--3--|--1----1--1----1--1--1--|
--0----0--0----0--0--0--|--2----2--2----2--2--2--|--0----0--0----0--0--0--|
--0----0--0----0--0--0--|--0----0--0----0--0--0--|--2----2--2----2--2--2--|
--2----2----------------|------------------------|--3----3--3----3--3--3--|
--3----3----------------|------------------------|------------------------|


  G                        G                        E                      
----------3----3--3--3--|----------3----3--3--3--|----------0----0--0--0--|
----------0----0--0--0--|----------0----0--0--0--|--0----0--0----0--0--0--|
--0----0--0----0--0--0--|--0----0--0----0--0--0--|--1----1--1----1--1--1--|
--0----0--0----0--0--0--|--0----0--0----0--0--0--|--2----2--2----2--2--2--|
--2----2----------------|--2----2----------------|--2----2--2----2--2--2--|
--3----3----------------|--3----3----------------|--0----0----------------|


  C    C  C    C  C  C     G                        G                      
--0----0--0----0--0--0--|----------3----3--3--3--|----------3----3--3--3--|
--1----1--1----1--1--1--|----------0----0--0--0--|----------0----0--0--0--|
--0----0--0----0--0--0--|--0----0--0----0--0--0--|--0----0--0----0--0--0--|
--2----2--2----2--2--2--|--0----0--0----0--0--0--|--0----0--0----0--0--0--|
--3----3--3----3--3--3--|--2----2----------------|--2----2----------------|
------------------------|--3----3----------------|--3----3----------------|


  E                        C    C  C    C  C  C     C    C  C    C  C  C   
----------0----0--0--0--|--0----0--0----0--0--0--|--0----0--0----0--0--0--|
--0----0--0----0--0--0--|--1----1--1----1--1--1--|--1----1--1----1--1--1--|
--1----1--1----1--1--1--|--0----0--0----0--0--0--|--0----0--0----0--0--0--|
--2----2--2----2--2--2--|--2----2--2----2--2--2--|--2----2--2----2--2--2--|
--2----2--2----2--2--2--|--3----3--3----3--3--3--|--3----3--3----3--3--3--|
--0----0----------------|------------------------|------------------------|


  G                                                 C    C  C    C  C  C   
----------3----3--3--3--|--0----0--0--3----3--3--|--0----0--0----0--0--0--|
----------0----0--0--0--|--1----1--1--0----0--0--|--1----1--1----1--1--1--|
--0----0--0----0--0--0--|--0----0--0--0----0--0--|--0----0--0----0--0--0--|
--0----0--0----0--0--0--|--2----2--2--0----0--0--|--2----2--2----2--2--2--|
--2----2----------------|--3----3--3--2----2--2--|--3----3--3----3--3--3--|
--3----3----------------|-------------3----3--3--|------------------------|


  G                                                                        
----------3----3--3--3--|--0----0--0--3----3--3--|--0----0--0--3----3--3--|
----------0----0--0--0--|--1----1--1--0----0--0--|--1----1--1--0----0--0--|
--0----0--0----0--0--0--|--0----0--0--0----0--0--|--0----0--0--0----0--0--|
--0----0--0----0--0--0--|--2----2--2--0----0--0--|--2----2--2--0----0--0--|
--2----2----------------|--3----3--3--2----2--2--|--3----3--3--2----2--2--|
--3----3----------------|-------------3----3--3--|-------------3----3--3--|


  C    C  C    C  C  C     G                                               
--0----0--0----0--0--0--|----------3----3--3--3--|--0----0--0--3----3--3--|
--1----1--1----1--1--1--|----------0----0--0--0--|--1----1--1--0----0--0--|
--0----0--0----0--0--0--|--0----0--0----0--0--0--|--0----0--0--0----0--0--|
--2----2--2----2--2--2--|--0----0--0----0--0--0--|--2----2--2--0----0--0--|
--3----3--3----3--3--3--|--2----2----------------|--3----3--3--2----2--2--|
------------------------|--3----3----------------|-------------3----3--3--|


                           C    C  C    C  C  C     G                      
--0----0--0--3----3--3--|--0----0--0----0--0--0--|----------3----3--3--3--|
--1----1--1--0----0--0--|--1----1--1----1--1--1--|----------0----0--0--0--|
--0----0--0--0----0--0--|--0----0--0----0--0--0--|--0----0--0----0--0--0--|
--2----2--2--0----0--0--|--2----2--2----2--2--2--|--0----0--0----0--0--0--|
--3----3--3--2----2--2--|--3----3--3----3--3--3--|--2----2----------------|
-------------3----3--3--|------------------------|--3----3----------------|


                                                    C    C  C    C  C  C   
--0----0--0--3----3--3--|--0----0--0--3----3--3--|--0----0--0----0--0--0--|
--1----1--1--0----0--0--|--1----1--1--0----0--0--|--1----1--1----1--1--1--|
--0----0--0--0----0--0--|--0----0--0--0----0--0--|--0----0--0----0--0--0--|
--2----2--2--0----0--0--|--2----2--2--0----0--0--|--2----2--2----2--2--2--|
--3----3--3--2----2--2--|--3----3--3--2----2--2--|--3----3--3----3--3--3--|
-------------3----3--3--|-------------3----3--3--|------------------------|


  G                        G                        E                      
----------3----3--3--3--|----------3----3--3--3--|----------0----0--0--0--|
----------0----0--0--0--|----------0----0--0--0--|--0----0--0----0--0--0--|
--0----0--0----0--0--0--|--0----0--0----0--0--0--|--1----1--1----1--1--1--|
--0----0--0----0--0--0--|--0----0--0----0--0--0--|--2----2--2----2--2--2--|
--2----2----------------|--2----2----------------|--2----2--2----2--2--2--|
--3----3----------------|--3----3----------------|--0----0----------------|


  C    C  C    C  C  C     G                        G                      
--0----0--0----0--0--0--|----------3----3--3--3--|----------3----3--3--3--|
--1----1--1----1--1--1--|----------0----0--0--0--|----------0----0--0--0--|
--0----0--0----0--0--0--|--0----0--0----0--0--0--|--0----0--0----0--0--0--|
--2----2--2----2--2--2--|--0----0--0----0--0--0--|--0----0--0----0--0--0--|
--3----3--3----3--3--3--|--2----2----------------|--2----2----------------|
------------------------|--3----3----------------|--3----3----------------|


  E                        C    C  C    C  C  C     C    C  C    C  C  C   
----------0----0--0--0--|--0----0--0----0--0--0--|--0----0--0----0--0--0--|
--0----0--0----0--0--0--|--1----1--1----1--1--1--|--1----1--1----1--1--1--|
--1----1--1----1--1--1--|--0----0--0----0--0--0--|--0----0--0----0--0--0--|
--2----2--2----2--2--2--|--2----2--2----2--2--2--|--2----2--2----2--2--2--|
--2----2--2----2--2--2--|--3----3--3----3--3--3--|--3----3--3----3--3--3--|
--0----0----------------|------------------------|------------------------|


  G                        Bm                       C    C  C    C  C  C   
----------3----3--3--3--|--2----2--2----2--2--4--|--0----0--0----0--0--0--|
----------0----0--0--0--|--3----3--3----3--3--3--|--1----1--1----1--1--1--|
--0----0--0----0--0--0--|--4----4--4----4--4--4--|--0----0--0----0--0--0--|
--0----0--0----0--0--0--|--4----4--4----4--4--4--|--2----2--2----2--2--2--|
--2----2----------------|--2----2--2----2--2--2--|--3----3--3----3--3--3--|
--3----3----------------|------------------------|------------------------|


  C    C  C    C  C  C     G                        Bm                     
--0----0--0----0--0--0--|----------3----3--3--3--|--2----2--2----2--2--4--|
--1----1--1----1--1--1--|----------0----0--0--0--|--3----3--3----3--3--3--|
--0----0--0----0--0--0--|--0----0--0----0--0--0--|--4----4--4----4--4--4--|
--2----2--2----2--2--2--|--0----0--0----0--0--0--|--4----4--4----4--4--4--|
--3----3--3----3--3--3--|--2----2----------------|--2----2--2----2--2--2--|
------------------------|--3----3----------------|------------------------|


  C    C  C    C  C  C     C    C  C    C  C  C     G                      
--0----0--0----0--0--0--|--0----0--0----0--0--0--|----------3----3--3--3--|
--1----1--1----1--1--1--|--1----1--1----1--1--1--|----------0----0--0--0--|
--0----0--0----0--0--0--|--0----0--0----0--0--0--|--0----0--0----0--0--0--|
--2----2--2----2--2--2--|--2----2--2----2--2--2--|--0----0--0----0--0--0--|
--3----3--3----3--3--3--|--3----3--3----3--3--3--|--2----2----------------|
------------------------|------------------------|--3----3----------------|


  Bm                       C    C  C    C  C  C     C    C  C    C  C  C   
--2----2--2----2--2--4--|--0----0--0----0--0--0--|--0----0--0----0--0--0--|
--3----3--3----3--3--3--|--1----1--1----1--1--1--|--1----1--1----1--1--1--|
--4----4--4----4--4--4--|--0----0--0----0--0--0--|--0----0--0----0--0--0--|
--4----4--4----4--4--4--|--2----2--2----2--2--2--|--2----2--2----2--2--2--|
--2----2--2----2--2--2--|--3----3--3----3--3--3--|--3----3--3----3--3--3--|
------------------------|------------------------|------------------------|


  G                        Bm                       C    C  C    C  C  C   
----------3----3--3--3--|--2----2--2----2--2--4--|--0----0--0----0--0--0--|
----------0----0--0--0--|--3----3--3----3--3--3--|--1----1--1----1--1--1--|
--0----0--0----0--0--0--|--4----4--4----4--4--4--|--0----0--0----0--0--0--|
--0----0--0----0--0--0--|--4----4--4----4--4--4--|--2----2--2----2--2--2--|
--2----2----------------|--2----2--2----2--2--2--|--3----3--3----3--3--3--|
--3----3----------------|------------------------|------------------------|


  C    C  C    C  C  C     G                        Bm                     
--0----0--0----0--0--0--|----------3----3--3--3--|--2----2--2----2--2--4--|
--1----1--1----1--1--1--|----------0----0--0--0--|--3----3--3----3--3--3--|
--0----0--0----0--0--0--|--0----0--0----0--0--0--|--4----4--4----4--4--4--|
--2----2--2----2--2--2--|--0----0--0----0--0--0--|--4----4--4----4--4--4--|
--3----3--3----3--3--3--|--2----2----------------|--2----2--2----2--2--2--|
------------------------|--3----3----------------|------------------------|


  C    C  C    C  C  C     C    C  C    C  C  C     G                      
--0----0--0----0--0--0--|--0----0--0----0--0--0--|----------3----3--3--3--|
--1----1--1----1--1--1--|--1----1--1----1--1--1--|----------0----0--0--0--|
--0----0--0----0--0--0--|--0----0--0----0--0--0--|--0----0--0----0--0--0--|
--2----2--2----2--2--2--|--2----2--2----2--2--2--|--0----0--0----0--0--0--|
--3----3--3----3--3--3--|--3----3--3----3--3--3--|--2----2----------------|
------------------------|------------------------|--3----3----------------|


  Bm                       C    C  C    C  C  C     C    C  C    C  C  C   
--2----2--2----2--2--4--|--0----0--0----0--0--0--|--0----0--0----0--0--0--|
--3----3--3----3--3--3--|--1----1--1----1--1--1--|--1----1--1----1--1--1--|
--4----4--4----4--4--4--|--0----0--0----0--0--0--|--0----0--0----0--0--0--|
--4----4--4----4--4--4--|--2----2--2----2--2--2--|--2----2--2----2--2--2--|
--2----2--2----2--2--2--|--3----3--3----3--3--3--|--3----3--3----3--3--3--|
------------------------|------------------------|------------------------|


      
----||
----||
----||
----||
----||
----||




 

---------------------------------------------------------------
.::::ξ音樂蟲子ζ::::. 

-
 吉他二 (分解)
E||------------------|-----------3-----3--------|--------2-----------0-----|
B||------------------|--------0-----------0-----|-----------3-----------1--|
G||------------------|-----0-----------------0--|-----2-----------0--------|
D||------------------|--------------------------|--0-----------------------|
A||------------------|--------------------------|--------------3-----------|
E||------------------|--3-----------3-----------|--------------------------|


                                                      
-----------3-----3--------|--------2-----------0-----|
--------0-----------0-----|-----------3-----------1--|
-----0-----------------0--|-----2-----------0--------|
--------------------------|--0-----------------------|
--------------------------|--------------3-----------|
--3-----------3-----------|--------------------------|


                                                      
-----------3-----3--------|--------2-----------0-----|
--------0-----------0-----|-----------3-----------1--|
-----0-----------------0--|-----2-----------0--------|
--------------------------|--0-----------------------|
--------------------------|--------------3-----------|
--3-----------3-----------|--------------------------|


                                                      
-----------3-----3--------|--------2-----------0-----|
--------0-----------0-----|-----------3-----------1--|
-----0-----------------0--|-----2-----------0--------|
--------------------------|--0-----------------------|
--------------------------|--------------3-----------|
--3-----------3-----------|--------------------------|


                                                      
-----------3-----3--------|-----------2-----2--------|
--------0-----------0-----|--------3-----------3-----|
-----0-----------------0--|-----2-----------------2--|
--------------------------|--0-----------0-----------|
--------------------------|--------------------------|
--3-----------3-----------|--------------------------|


                                                      
-----------0-----0--------|-----------3-----3--------|
--------1-----------1-----|--------0-----------0-----|
-----0-----------------0--|-----0-----------------0--|
--------------------------|--------------------------|
--3-----------3-----------|--------------------------|
--------------------------|--3-----------3-----------|


                                                      
-----------3-----3--------|-----------2-----2--------|
--------0-----------0-----|--------3-----------3-----|
-----0-----------------0--|-----2-----------------2--|
--------------------------|--0-----------0-----------|
--------------------------|--------------------------|
--3-----------3-----------|--------------------------|


                                                      
-----------0-----0--------|-----------3-----3--------|
--------1-----------1-----|--------0-----------0-----|
-----0-----------------0--|-----0-----------------0--|
--------------------------|--------------------------|
--3-----------3-----------|--------------------------|
--------------------------|--3-----------3-----------|


                                                      
-----------3-----3--------|-----------0-----0--------|
--------0-----------0-----|--------0-----------0-----|
-----0-----------------0--|-----1-----------------1--|
--------------------------|--------------------------|
--------------------------|--------------------------|
--3-----------3-----------|--0-----------0-----------|


                                                      
-----------0-----0--------|-----------3-----3--------|
--------1-----------1-----|--------0-----------0-----|
-----0-----------------0--|-----0-----------------0--|
--------------------------|--------------------------|
--3-----------3-----------|--------------------------|
--------------------------|--3-----------3-----------|


                                                      
-----------3-----3--------|-----------0-----0--------|
--------0-----------0-----|--------0-----------0-----|
-----0-----------------0--|-----1-----------------1--|
--------------------------|--------------------------|
--------------------------|--------------------------|
--3-----------3-----------|--0-----------0-----------|


                                                      
-----------0-----0--------|-----------0-----0--------|
--------1-----------1-----|--------1-----------1-----|
-----0-----------------0--|-----0-----------------0--|
--------------------------|--------------------------|
--3-----------3-----------|--3-----------3-----------|
--------------------------|--------------------------|


                                                      
-----------3-----3--------|--------2-----------0-----|
--------0-----------0-----|-----------3-----------1--|
-----0-----------------0--|-----2-----------0--------|
--------------------------|--0-----------------------|
--------------------------|--------------3-----------|
--3-----------3-----------|--------------------------|


                                                      
-----------3-----3--------|--------2-----------0-----|
--------0-----------0-----|-----------3-----------1--|
-----0-----------------0--|-----2-----------0--------|
--------------------------|--0-----------------------|
--------------------------|--------------3-----------|
--3-----------3-----------|--------------------------|


                                                      
-----------3-----3--------|-----------2-----2--------|
--------0-----------0-----|--------3-----------3-----|
-----0-----------------0--|-----2-----------------2--|
--------------------------|--0-----------0-----------|
--------------------------|--------------------------|
--3-----------3-----------|--------------------------|


                                                      
-----------0-----0--------|-----------3-----3--------|
--------1-----------1-----|--------0-----------0-----|
-----0-----------------0--|-----0-----------------0--|
--------------------------|--------------------------|
--3-----------3-----------|--------------------------|
--------------------------|--3-----------3-----------|


                                                      
-----------3-----3--------|-----------2-----2--------|
--------0-----------0-----|--------3-----------3-----|
-----0-----------------0--|-----2-----------------2--|
--------------------------|--0-----------0-----------|
--------------------------|--------------------------|
--3-----------3-----------|--------------------------|


                                                      
-----------0-----0--------|-----------3-----3--------|
--------1-----------1-----|--------0-----------0-----|
-----0-----------------0--|-----0-----------------0--|
--------------------------|--------------------------|
--3-----------3-----------|--------------------------|
--------------------------|--3-----------3-----------|


                                                      
-----------3-----3--------|-----------0-----0--------|
--------0-----------0-----|--------0-----------0-----|
-----0-----------------0--|-----1-----------------1--|
--------------------------|--------------------------|
--------------------------|--------------------------|
--3-----------3-----------|--0-----------0-----------|


                                                      
-----------0-----0--------|-----------3-----3--------|
--------1-----------1-----|--------0-----------0-----|
-----0-----------------0--|-----0-----------------0--|
--------------------------|--------------------------|
--3-----------3-----------|--------------------------|
--------------------------|--3-----------3-----------|


                                                      
-----------3-----3--------|-----------0-----0--------|
--------0-----------0-----|--------0-----------0-----|
-----0-----------------0--|-----1-----------------1--|
--------------------------|--------------------------|
--------------------------|--------------------------|
--3-----------3-----------|--0-----------0-----------|


                                                                                
-----------0-----0--------|-----------0-----0--------|-------------------------|
--------1-----------1-----|--------1-----------1-----|-----3----3--5--3--------|
-----0-----------------0--|-----0-----------------0--|--4----------------5--4--|
--------------------------|--------------------------|-------------------------|
--3-----------3-----------|--3-----------3-----------|-------------------------|
--------------------------|--------------------------|-------------------------|


                                                                            
------------------------|-------------------------|------------------------|
-----5----5-----3----3--|-----5----5--6--5--5--3--|--3--3--5--3------------|
--5----------4----------|--5----------------------|--------------5----4----|
------------------------|-------------------------|------------------------|
------------------------|-------------------------|------------------------|
------------------------|-------------------------|------------------------|


                                                                             
-----3----3--------------|------------------------|-------------------------|
--3----------5--3-----3--|-----5----5-----3----3--|-----5----5--6--5--5--3--|
-------------------5-----|--5----------4----------|--5----------------------|
-------------------------|------------------------|-------------------------|
-------------------------|------------------------|-------------------------|
-------------------------|------------------------|-------------------------|


                                                                         
------------------------|-----------------------|-----------------------|
--3--3--5--3------------|--3--5----3------------|-----5----3------------|
--------------5----4----|-------------5----4----|--5----------5----4----|
------------------------|-----------------------|-----------------------|
------------------------|-----------------------|-----------------------|
------------------------|-----------------------|-----------------------|


                                                                           
------------------------|-------------------------|-----------------------|
-----5----3--3--5----5--|--5--3-----3-------------|--3--5----3------------|
--5---------------------|--------5-----5--4--4----|-------------5----4----|
------------------------|-------------------------|-----------------------|
------------------------|-------------------------|-----------------------|
------------------------|-------------------------|-----------------------|


                                                                           
-----------------------|------------------------|-------------------------|
-----5----3------------|-----5----3--3--5----5--|--5--3-----3-------------|
--5----------5----4----|--5---------------------|--------5-----5--4--4----|
-----------------------|------------------------|-------------------------|
-----------------------|------------------------|-------------------------|
-----------------------|------------------------|-------------------------|


                                                      
-----------3-----3--------|-----------0-----0--------|
--------0-----------0-----|--------0-----------0-----|
-----0-----------------0--|-----1-----------------1--|
--------------------------|--------------------------|
--------------------------|--------------------------|
--3-----------3-----------|--0-----------0-----------|


                                                      
-----------0-----0--------|-----------3-----3--------|
--------1-----------1-----|--------0-----------0-----|
-----0-----------------0--|-----0-----------------0--|
--------------------------|--------------------------|
--3-----------3-----------|--------------------------|
--------------------------|--3-----------3-----------|


                                                      
-----------3-----3--------|-----------0-----0--------|
--------0-----------0-----|--------0-----------0-----|
-----0-----------------0--|-----1-----------------1--|
--------------------------|--------------------------|
--------------------------|--------------------------|
--3-----------3-----------|--0-----------0-----------|


                                                                             
-----------0-----0--------|-----------0-----0--------|----------------------|
--------1-----------1-----|--------1-----------1-----|--15------------------|
-----0-----------------0--|-----0-----------------0--|----------------14----|
--------------------------|--------------------------|----------------------|
--3-----------3-----------|--3-----------3-----------|----------------------|
--------------------------|--------------------------|----------------------|


                                                                   
--------------------|--20------------19----|--17--------15--------|
--------------------|----------------------|----------------------|
--16----------------|----------------------|----------------------|
--------------------|----------------------|----------------------|
--------------------|----------------------|----------------------|
--------------------|----------------------|----------------------|


                                                                   
----------------------|--------------------|--20------------19----|
--15------------------|--------------------|----------------------|
----------------14----|--16----------------|----------------------|
----------------------|--------------------|----------------------|
----------------------|--------------------|----------------------|
----------------------|--------------------|----------------------|


                                                                   
--17--------15--------|----------------------|--------------------|
----------------------|--15------------------|--------------------|
----------------------|----------------14----|--16----------------|
----------------------|----------------------|--------------------|
----------------------|----------------------|--------------------|
----------------------|----------------------|--------------------|


                                                                     
--20------------19----|--17--------15--------|----------------------|
----------------------|----------------------|--15------------------|
----------------------|----------------------|----------------14----|
----------------------|----------------------|----------------------|
----------------------|----------------------|----------------------|
----------------------|----------------------|----------------------|


                                                                   
--------------------|--20------------19----|--17--------15--------|
--------------------|----------------------|----------------------|
--16----------------|----------------------|----------------------|
--------------------|----------------------|----------------------|
--------------------|----------------------|----------------------|
--------------------|----------------------|----------------------|


                                                                   
----------------------|--------------------|--20------------19----|
--15------------------|--------------------|----------------------|
----------------14----|--16----------------|----------------------|
----------------------|--------------------|----------------------|
----------------------|--------------------|----------------------|
----------------------|--------------------|----------------------|


                                                                   
--17--------15--------|----------------------|--------------------|
----------------------|--15------------------|--------------------|
----------------------|----------------14----|--16----------------|
----------------------|----------------------|--------------------|
----------------------|----------------------|--------------------|
----------------------|----------------------|--------------------|


                                                                    
--20------------19----|--17--------15--------|--15----------------||
----------------------|----------------------|--------------------||
----------------------|----------------------|--------------------||
----------------------|----------------------|--------------------||
----------------------|----------------------|--------------------||
----------------------|----------------------|--------------------||

添加到谱单
X

添加到谱单

《 我不想失去你 -- 新褲子樂隊 》加入
◎ 选择已有谱单 创建新的

公开 (默认不公开,欢迎创建有意思的"公开谱单")

创建取消

推荐语(选填)

X

请先登录chord4


忘记密码