歌手头像-陶喆

她的歌

1 2 3 4 5
x

音乐人: 陶喆

供谱者:reecho

Intro
E9
 , . . .  , . . .
|---0----|---0----|
|--4---4-|--4---4-|
|--4----4|--4-----|  X 2
|-4------|-4------|
|--------|--------|
|0-------|0-------|
~~~~~~~~~~~~~~~~~~~~~~~~~~~~~~~~~~~~~~~~~~~~~
E9         F#m7  
 , . . .  , . . .  , . . .  , . . . 
|---0----|---0----|---2----|---2----|
|--4---4-|--4---4-|--2---2-|--2--2-0|
|--4----4|--4-----|--2----2|--2---2-|
|-4------|-4------|-2------|-2------|
|--------|--------|--------|--------|
|0-------|0-------|2-------|2-------|
 想起她      還在等她說的那句話  忽然發現青春..
~~~~~~~~~~~~~~~~~~~~~~~~~~~~~~~~~~~~~~~~~~~~~
 A2  Bsus     E9
 , . . .  , . . .  ,  . . .  , . . .
|---0----|---0-2--|-h -0----|---0----|
|--0--0--|--0-----|02 4----4|--4--4-4|
|--2---2-|-2------|- -4-----|--4---4-|
|-2-----2|--------|- 4------|-4------|
|0-------|2-------|- -------|--------|
|--------|--------|0 -------|0-------|
..有白髮  等待像微笑蒙那麗莎
~~~~~~~~~~~~~~~~~~~~~~~~~~~~~~~~~~~~~~~~~~~~~
E9    F#m7
 , . . .  ,h . . .  , . . .  , . . .
|---0----|20--0----|---2----|---2----|
|--4—-4-4|- 4---4-4|--2---2-|--2--2-2|
|--4---4-|- -4---4-|--2----2|--2---2-|
|-4------|- -------|-2------|-2------|
|--------|- -------|--------|--------|
|0-------|0 -------|2-------|2-------|
 看著她 像開在懸崖邊那朵花     回憶在一步之..
~~~~~~~~~~~~~~~~~~~~~~~~~~~~~~~~~~~~~~~~~~~~~
 A2  Bsus     E   G F# E    Ab7
 , . . .  , . . .  , . . .  , .  . . 
|---0----|---0-2--|--------|---- ----|
|--0--0--|--0-----|--0--3-2|--0- --4-|
|--2---2-|-2------|--1--0-3|--1- --5-|
|-2-----2|--------|-2------|-2-- -4-4|
|0-------|2-------|--------|---- ----|
|--------|--------|0--03-2-|0--234---|
..間掙扎  愛情讓人忘了害怕   不知..
~~~~~~~~~~~~~~~~~~~~~~~~~~~~~~~~~~~~~~~~~~~~~
   C#7 Fdim F#7      BsusB    E   D7
   , . . .  , . . .  , . . .  , . . . 
  |--------|----2---|------2-|--------|
  |--6---9-|--2---2-|--5-4---|--0---7-|
  |--4---10|--2---2-|--2-----|--1---5-|
  |-6-6-9-9|-2-2-2-2|-4-4-4-4|-2---7--|
  |4---8---|--------|2---2---|----5--5|
  |--------|2-------|--------|0--0----|
..吹到何年何月那陣風 不知忍到何年何月那種痛 在我眼...
~~~~~~~~~~~~~~~~~~~~~~~~~~~~~~~~~~~~~~~~~~~~~
 Ab7     F#m7 Ebdim Abm7 E/B  A2
 , . . .  , . . .  , . . .  , . . . 
|----4---|--------|--------|----0---|
|--6--6--|--2---7-|--5---0-|--0--0-0|
|--4---4-|--2---8-|--4--1--|---2--2-|
|-6-----6|-2---7--|-6------|-2------|
|4--4----|----6--6|4--42--2|0-------|
|--------|2--2----|--------|--------|
 中  春夏秋冬 在那一刻已變成了永恆
~~~~~~~~~~~~~~~~~~~~~~~~~~~~~~~~~~~~~~~~~~~~~
C2   Bsus E9       C2   Bsus E9
 , . . .  , . . .   , . . . , . . . 
|-----20-|----0---|--------|----0---|
|--3----0|--4--4-4|--3---5-|---4-4-4|
|--------|---4--4-|-00---2-|--4---4-|
|-2------|-4------|-----4--|-4------|
|3---2---|--------|3--32--2|--------|
|--------|0-------|--------|0-------|
荒蕪的心不要別人懂   她是我不想醒來的夢
~~~~~~~~~~~~~~~~~~~~~~~~~~~~~~~~~~~~~~~~~~~~~
E9
 , . . .
|----0---|
|---4----|
|--4-----|
|-4------|
|--------|
|0-------|…repeat
~~~~~~~~~~~~~~~~~~~~~~~~~~~~~~~~~~~~~~~~~~~~~
Ending
 , . . .  , . . .  , . . .
|----0---|----0---|---0----|
|---4-4-4|---4----|--4-----|
|--4---4-|--4-----|-4------|
|-4------|-4------|--------|
|--------|--------|--------|
|0-------|0-------|0-------| …repeat
        Anita ~
添加到谱单
X

添加到谱单

《 她的歌 -- 陶喆 》加入
◎ 选择已有谱单 创建新的

公开 (默认不公开,欢迎创建有意思的"公开谱单")

创建取消

推荐语(选填)

X

请先登录chord4


忘记密码