歌手头像-楊千樺

鍊金術

1 2 3 4 5
x

音乐人: 楊千樺

供谱者:mix



1|424--2|0-0|0-02-----|
2|------|-2-|-2--42200|
3|---11-|---|---------|
4|------|---|---------|
5|------|---|---------|
6|------|---|---------|
  給我一團熊火 試煉我 證明我這麼狠狠愛過

1|245542420|24-|02-|
2|---------|--2|--4|
3|---------|---|---|
4|---------|---|---|
5|---------|---|---|
6|---------|---|---|
  期望不多隻要得到過 你身旁 那寶座

1|424--2|0-0|0-02-----|
2|------|-2-|-2--42200|
3|---11-|---|---------|
4|------|---|---------|
5|------|---|---------|
6|------|---|---------|
  給我一場洪水 冷靜我 眼淚太多已匯聚成河

1|245542420|-4-4-0|44-4-02|
2|---------|2-2-2-|--2-2--|
3|---------|------|-------|
4|---------|------|-------|
5|---------|------|-------|
6|---------|------|-------|
  力竭聲嘶請你喜歡我 什麼事都做過 都不能感動你麼

1|--4247424|--20240-0|
2|00-------|00-----4-|
3|---------|---------|
4|---------|---------|
5|---------|---------|
6|---------|---------|
 *原來暫時共你沒緣份 來年先會變得更合襯

1|--020-4|0402|--4247424|
2|24---0-|----|00-------|
3|-------|----|---------|
4|-------|----|---------|
5|-------|----|---------|
6|-------|----|---------|
  頑石哪天變黃金 我可以等 融和二人是哪樣成份

1|442227420|-0---00|--5420|
2|---------|2-2-0--|02----|
3|---------|---2---|------|
4|---------|-------|------|
5|---------|-------|------|
6|---------|-------|------|
7|---------|-------|------|
  但願虔誠能顯得吸引 用五十年溶化你 成就金禧一吻*


1|424--20-0|0-02-----|
2|-------2-|-2--42200|
3|---11----|---------|
4|---------|---------|
5|---------|---------|
6|---------|---------|
  不夠激情仍可靠耐性 對付你的冷酷及無情

1|245542420|24-|02-|
2|---------|--2|--4|
3|---------|---|---|
4|---------|---|---|
5|---------|---|---|
6|---------|---|---|
  沉默假使都算種本領 我一定 最安靜

1|424--20-0|0-02-------|
2|-------2-|-2--4220-20|
3|---11----|--------1--|
4|---------|-----------|
5|---------|-----------|
6|---------|-----------|
  深信忠誠遲早會獲勝 那份固執終於都會被尊敬

1|245542420|-4-4-0|44-4-02|
2|---------|2-2-2-|--2-2--|
3|---------|------|-------|
4|---------|------|-------|
5|---------|------|-------|
6|---------|------|-------|
  如鍊金般等你先轉性 除非遺失人性 怎可能一直結冰

REPEAT*

1|--0|--2|0245407|
2|02-|02-|-------|
3|---|---|-------|
4|---|---|-------|
5|---|---|-------|
6|---|---|-------|
  頭白了 還在等 情人預約在黃昏


1|--4247424|--20240-0|
2|00-------|00-----4-|
3|---------|---------|
4|---------|---------|
5|---------|---------|
6|---------|---------|
  原來暫時共你沒緣份 來年先會變得更合襯

1|--020-4|0402|--4247424|
2|24---0-|----|00-------|
3|-------|----|---------|
4|-------|----|---------|
5|-------|----|---------|
6|-------|----|---------|
  期待再苦再難堪 我都會忍 談情十年未晚不怕等

1|442227940|-0---00|--5420|
2|---------|2-2-0--|02----|
3|---------|---2---|------|
4|---------|-------|------|
5|---------|-------|------|
6|---------|-------|------|
  渡日如年仍覺得興奮 若最後能溶化你 何用心急手震 
添加到谱单
X

添加到谱单

《 鍊金術 -- 楊千樺 》加入
◎ 选择已有谱单 创建新的

公开 (默认不公开,欢迎创建有意思的"公开谱单")

创建取消

推荐语(选填)

X

请先登录chord4


忘记密码