歌手头像-楊千樺

少女的祈禱

1 2 3 4 5
x

音乐人: 楊千樺

供谱者:mix

變調夾夾4品

指法:
E||------------------------|
B||------------1-----1-----|
G||*--------0-----0-----0--|
D||*-----2-----------------|
A||---3--------------------|
E||------------------------|

前奏:
E||------------------------|-----------------------------|
B||------------1-----1-----|-----------1-----------1-----|
G||*--------0-----0-----0--|--------0-----0-----0-----0--|
D||*-----2-----------------|-----2-----------2-----------|
A||---3--------------------|--3--------------------------|
E||------------------------|-----------------------------|

       C               G     Am      Em
沿途與他車箱中私奔般戀愛 再擠逼都不放開
      C             Em    F          G 
祈求在路上沒任何的阻礙 令愉快旅程變悲哀
F                 Em   Am        Em    
運氣兩次綠燈都過渡了 與他再愛幾公里
   Am             Em    F          G 
當這盞燈轉紅便會別離 憑運氣決定我生死
    C             G           Am      Em 
祈求天地放過一雙戀人 怕發生的永遠別發生 
     F              C    F          G
從來求順利遇上好景降臨 如何能重拾信心
     C            G          Am          Em 
祈求天父做十分鐘好人 賜我他的吻 如憐憫罪人 
     F         C           F        G
我愛主 同時亦愛一位世人 祈求沿途未變心
        C 
請給我護蔭
     C               Am      F        Am 
爲了他 不懂禱告都敢禱告 誰願眷顧這種信徒
     C              Am       F       C
用兩手遮掩雙眼專心傾訴 寧願答案 望不到
      C               G       Am      Em    C               Em 
唯求與他車箱中可抵達未來 到車毀都不放開 無論路上歷盡任何的傷害
    F         G 
任由我決定愛不愛 
    C             G           Am      Em 
祈求天地放過一雙戀人 怕發生的永遠別發生 
     F              C    F          G
從來求順利遇上好景降臨 如何能重拾信心
     C            G          Am          Em 
祈求天父做十分鐘好人 賜我他的吻 如憐憫罪人
     F         C           F        G           C
我愛主 同時亦愛一位愛人 祈求 沿途未變心 請給我護蔭 
     C               Am      F        Am      C              Am       F       C
爲了他 不懂禱告都敢禱告 誰願眷顧這種信徒 太愛他怎麼想到這麼恐怖 對綠燈去哀求哭訴
    C           G            Am         Em     F           C  
然而天父並未體恤好人 到我睜開眼 無明燈指引 我愛主 爲何任我身邊愛人
   F         G         C
離棄了我下了車 你怎可答允

添加到谱单
X

添加到谱单

《 少女的祈禱 -- 楊千樺 》加入
◎ 选择已有谱单 创建新的

公开 (默认不公开,欢迎创建有意思的"公开谱单")

创建取消

推荐语(选填)

X

请先登录chord4


忘记密码