歌手头像-袁惟仁

征服-鄉謠版

1 2 3 4 5
x

音乐人: 袁惟仁

供谱者:mix



因爲沒想到怎樣表述16分音符(兩條下劃線),所以譜全部快一倍彈奏,即8分代表16分,4分代表8分,^表示連音符號。

前奏:
G                 
----------------0^0^0------|----------------0^0^0^0^0--|
-------3--------|-|-|-3----|-------3--------|-|-|-|-|--|
-----0-|------0-|-|-|-|----|-----0-|------0-|-|-|-|-|--|
---0-|-|----0-|-|-|-|-|-0--|---0-|-|----0-|-|-|-|-|-|--|
---|-|-|----|-|-|-|-|-|-|--|---|-|-|----|-|-|-|-|-|-|--|
-3-|-|-|--3-|-|-|-|-|-|-|--|-3-|-|-|--3-|-|-|-|-|-|-|--|
 | | | |  | | | | | | | |  | | | | |  | | | | | | | |  |

A段:
G                   Bm7                Em9
--------------------------------------|----------------3---------------------|
-------0--------0---------3--------3--|-------3--------|---------3--------0--|
-----0-|------0-|-------2-|------2-|--|-----0-|------0-|-------0-|------0-|--|
---0-|-|----0-|-|-----0-|-|----0-|-|--|---4-|-|----4-|-|-----4-|-|----4-|-|--|
---|-|-|----|-|-|-----|-|-|----|-|-|--|---|-|-|----|-|-|-----|-|-|----|-|-|--|
-3-|-|-|--3-|-|-|---2-|-|-|--2-|-|-|--|-0-|-|-|--0-|-|-|---0-|-|-|--0-|-|-|--|
 | | | |  | | | |   | | | |  | | | |  | | | | |  | | | |   | | | |  | | | |  |

Am7                 C大7               D
--------------------------------------|-------0-------3--------2---------|
-------1--------1---------0--------0--|-----3-|-----3-|------3-|-------0-|
-----0-|------0-|-------0-|------0-|--|---2-|-|---2-|-|----2-|-|---0-2-|-|
---2-|-|----2-|-|-----2-|-|----2-|-|--|-0-|-|-|-0-|-|-|--0-|-|-|-0-|-|-|-|
-0-|-|-|--0-|-|-|---3-|-|-|--3-|-|-|--|-|-|-|-|-|-|-|-|--|-|-|-|-|-|-|-|-|
-|-|-|-|--|-|-|-|---|-|-|-|--|-|-|-|--|-|-|-|-|-|-|-|-|--|-|-|-|-|-|-|-|-|
 | | | |  | | | |   | | | |  | | | |  | | | | | | | | |  | | | | | | | | |

G                   Bm7                Em9
--------------------------------------|----------------3---------------------|
-------0--------0---------3--------3--|-------3--------|---------3--------0--|
-----0-|------0-|-------2-|------2-|--|-----0-|------0-|-------0-|------0-|--|
---0-|-|----0-|-|-----0-|-|----0-|-|--|---4-|-|----4-|-|-----4-|-|----4-|-|--|
---|-|-|----|-|-|-----|-|-|----|-|-|--|---|-|-|----|-|-|-----|-|-|----|-|-|--|
-3-|-|-|--3-|-|-|---2-|-|-|--2-|-|-|--|-0-|-|-|--0-|-|-|---0-|-|-|--0-|-|-|--|
 | | | |  | | | |   | | | |  | | | |  | | | | |  | | | |   | | | |  | | | |  |

Am7                 C大7     D9        G
-----------------------------------0--|------------3---------|
-------1--------1---------0------3-|--|-------0--1-|-1-------|
-----0-|------0-|-------0-|----2-|-|--|-----0-|--|-|-|-0-----|
---2-|-|----2-|-|-----2-|-|--0-|-|-|--|---0-|-|--|-|-|-|-----|
-0-|-|-|--0-|-|-|---3-|-|-|--|-|-|-|--|---|-|-|--|-|-|-|-----|
-|-|-|-|--|-|-|-|---|-|-|-|--|-|-|-|--|-3-|-|-|--|-|-|-|-3^3-|
 | | | |  | | | |   | | | |  | | | |  | | | | |  | | | | | | |

B段:
G                                      Bm9
--------------------------------------|-------0--------3---------0--------0--|
-------0--------0---------0--------0--|-------|--------|---------|--------|--|
-----2-|------2-|-------2-|------2-|--|-----0-|------0-|-------0-|------0-|--|
---0-|-|----0-|-|-----0-|-|----0-|-|--|---4-|-|----4-|-|-----4-|-|----4-|-|--|
---|-|-|----|-|-|-----|-|-|----|-|-|--|---|-|-|----|-|-|-----|-|-|----|-|-|--|
-3-|-|-|--3-|-|-|---3-|-|-|--3-|-|-|--|-0-|-|-|--0-|-|-|---0-|-|-|--0-|-|-|--|
 | | | |  | | | |   | | | |  | | | |  | | | | |  | | | |   | | | |  | | | |  |

Am7                 C大7               D
--------------------------------------|-------0-------3--------2---------|
-----0-1------0-----------0--------0--|-----3-|-----3-|------3-|---3-1---|
-----|-|------|-0-------0-|------0-|--|---2-|-|---2-|-|----2-|-|---|-|-0-|
---2-|-|----2-|-|-----2-|-|----2-|-|--|-0-|-|-|-0-|-|-|--0-|-|-|-|-|-|-|-|
-0-|-|-|--0-|-|-|---3-|-|-|--3-|-|-|--|-|-|-|-|-|-|-|-|--|-|-|-|-|-|-|-|-|
-|-|-|-|--|-|-|-|---|-|-|-|--|-|-|-|--|-|-|-|-|-|-|-|-|--|-|-|-|-|-|-|-|-|
 | | | |  | | | |   | | | |  | | | |  | | | | | | | | |  | | | | | | | | |

G                                      Bm9
--------------------------------------|-------0--------3---------0--------0--|
-------0--------1-------0----------0--|-------|--------|---------|--------|--|
-----2-|------0-|-------|-0------0-|--|-----0-|------0-|-------0-|------0-|--|
---0-|-|----0-|-|-----0-|-|----0-|-|--|---4-|-|----4-|-|-----4-|-|----2-|-|--|
---|-|-|----|-|-|-----|-|-|----|-|-|--|---|-|-|----|-|-|-----|-|-|--2-|-|-|--|
-3-|-|-|--3-|-|-|---3-|-|-|--3-|-|-|--|-0-|-|-|--0-|-|-|---0-|-|-|--|-|-|-|--|
 | | | |  | | | |   | | | |  | | | |  | | | | |  | | | |   | | | |  | | | |  |

Am7                 C大7      D9       G
-----------------------------------0--|------------------------3-3-------|
-----0-1------0-----------0------3-|--|-------1-------0------3-|-|-3-----|
-----|-|------|-0-------0-|----2-|-|--|-----0-|-----0-|----4-|-|-|-|-4---|
---2-|-|----2-|-|-----2-|-|--0-|-|-|--|---0-|-|---0-|-|--5-|-|-|-|-|-|-0-|
-0-|-|-|--0-|-|-|---3-|-|-|--|-|-|-|--|---|-|-|---|-|-|--|-|-|-|-|-|-|-|-|
-|-|-|-|--|-|-|-|---|-|-|-|--|-|-|-|--|-3-|-|-|-3-|-|-|--|-|-|-|-|-|-|-|-|
 | | | |  | | | |   | | | |  | | | |  | | | | | | | | |  | | | | | | | | |

間奏:
G
-----------------------------------3--|
-------0--------0---------0--------|--|
-----2-|------2-|-------2-|------2-|--|
---0-|-|----0-|-|-----0-|-|----0-|-|--|
---|-|-|----|-|-|-----|-|-|----|-|-|--|
-3-|-|-|--3-|-|-|---3-|-|-|--3-|-|-|--|
 | | | |  | | | |   | | | |  | | | |  |

C段:
F                                      Bm9
-------1--------1---------1--------1--|----------------0---------------------|
-------|--------|---------|--------|--|-------0--------|-------0----------0--|
-----2-|------2-|-------2-|------2-|--|-----0-|------0-|-------|-0------0-|--|
---3-|-|----3-|-|-----3-|-|----3-|-|--|---4-|-|----4-|-|-----4-|-|----4-|-|--|
---|-|-|----|-|-|-----|-|-|----|-|-|--|---|-|-|----|-|-|-----|-|-|----|-|-|--|
-1-|-|-|--1-|-|-|---1-|-|-|--1-|-|-|--|-0-|-|-|--0-|-|-|---0-|-|-|--0-|-|-|--|
 | | | |  | | | |   | | | |  | | | |  | | | | |  | | | |   | | | |  | | | |  |

F                                      D9
--------------------------1-----------|-------0--------0-----3^3^3--|
-------1--------1---------|--------1--|-----1-|------1-|---3-|-|-|--|
-----2-|------2-|-------2-|------2-|--|---2-|-|----2-|-|---|-|-|-|--|
---3-|-|----3-|-|-----3-|-|----3-|-|--|-0-|-|-|--0-|-|-|---|-|-|-|--|
---|-|-|----|-|-|-----|-|-|----|-|-|--|-|-|-|-|--|-|-|-|---|-|-|-|--|
-1-|-|-|--1-|-|-|---1-|-|-|--1-|-|-|--|-|-|-|-|--|-|-|-|---|-|-|-|--|
 | | | |  | | | |   | | | |  | | | |  | | | | |  | | | |   | | | |  |

尾奏:

Am7     C大7(琶音)     D9(琶音)     C9   Bm7
添加到谱单
X

添加到谱单

《 征服-鄉謠版 -- 袁惟仁 》加入
◎ 选择已有谱单 创建新的

公开 (默认不公开,欢迎创建有意思的"公开谱单")

创建取消

推荐语(选填)

X

请先登录chord4


忘记密码