歌手头像-陶喆

Katrina

1 2 3 4 5
x

音乐人: 陶喆

供谱者:reecho
和絃:
C#7
╓—3—┬———┬———┬———┐ 
╟—●—┼———┼—●—┼———┤ 
╟—●—┼———┼———┼———┤ 
╟—●—┼———┼—●—┼———┤ 
╟—●—┼———┼———┼———┤ 
╙—X—┴———┴———┴———┘
D/C#
╓———┬—●—┬———┬———┐ 
╟———┼———┼—●—┼———┤ 
╟———┼—●—┼———┼———┤ 
X———┼———┼———┼———┤ 
╟———┼———┼———┼—●—┤ 
X———┴———┴———┴———┘

GUITAR 1
A            E          D                        A         E               D
E|--------0-----------0----0-|----------0--------|-------0------------0----0-|--------|
B|--------0-----------0----3-|------------3------|-------0------------0----3-|--------|
G|-----2-----2-----1-------2-|--------------2----|----2-----------1--------2-|--------|
D|-------------------------0-|--------0-------0--|-------------------------0-|--------|
A|-0-------------------------|-------------------|--0------------------------|--------|
E|--------------0------------|-------------------|------------0--------------|--------|

GUITAR 2
G#|----3------------2------0-|----------0-------|-------3-----3-2----------0-|--------|
C#|---3------------3-------0-|------------1-----|-------3---------3--------0-|--------|
A |--0------------2--------0-|--------------0---|--2/4--------------2------0-|--------|
E |-------------0------------|----------------2-|-------------0--------------|--------|
B |------------------------3-|------------------|--------------------------3-|--------|
F#|-3------------------------|------------------|-------3--------------------|--------|


  A         E        C#7             F#m
katrina i cant stop looking in your eyes .
        E                    D
but my words dont come out straight .
   D/C#             Bm7    E
i dont know what to say . no .

     A       E      C#7          F#m
on monday i tell myself u gotta wait dave ,
      E                   D
dont rush it . dont anticipate .
           D/C#      Bm7        E
take it slowly , it’s ok . it’s ok .

A              E          D                         E      A
i just want a chance to know you to know the woman deep inside ,
E    D      E
yeah yeah

     A              E           D                        E      A
(and)i dont wanna look back on life to see this missed opportunity .
   E   D
yeah yeah

     Bm7                            D
even at the risk of looking like a fool to you,


GUITAR 1
   A            E          D                        A         E             D
E|-0------------0--------|-0---------------------|----0---------0-----------|-0-------|
B|-0------------0--------|-3---------------------|----0---------0-----------|-3-------|
G|-2------------1--------|-2---------------------|----2---------1-----------|-2-------|
D|-2------------2--------|-0---------------------|----2---------2-----------|-0-------|
A|-0------------2--------|-----------------------|----0---------2-----------|---------|
E|--------------0--------|-----------------------|--------------0-----------|---------|

GUITAR 2

G#|-3-----------2--2--0--|-0--------------0--2-3-|3/5-3---------2-----------|-0---------|
C#|-3--3--------3--------|-1-------3--1-----1----|----3--3--------3---------|-0---------|
A |-0----0------2--------|-0-----0---------------|---------0--------2-------|-0---------|
E |--------0----0--------|-----2-----------------|------------0-0-----------|-----------|
B |----------------------|-3---------------------|--------------------------|-3---------|
F#|-3--------------------|-----------------------|----3---------------------|-----------|


     A           E        C#7    F#m
on wednesday i casually wawlk on by
    E                    D
to find that you’re not there ,
D/C#               Bm7        E
i act like i dont care .

         A         E      C#7     F#m
but on friday i catch a glimpse of you
   E                 D
i tell myself dont hesitate ,
     D/C#                Bm7         E
you just walk up and say hello ! say hello !

A              E          D                         E      A
i just want a chance to know you to know the woman deep inside ,
E    D      E
yeah yeah

     A              E           D                        E      A
(and)i dont wanna look back on life to see this missed opportunity .
   E   D
yeah yeah (to get to know you)
     Bm7                            D
even at the risk of looking like a fool to you,

A              E          D                         E      A
i just want a chance to know you to know the woman deep inside ,
E    D      E
yeah yeah

     A              E           D                        E      A
(and)i dont wanna look back on life to see this missed opportunity .
   E   D
yeah yeah
     Bm7                            D                   
even at the risk of looking like a fool    to you,
    A    E   D    A   E    D
katrina will i ever know your heart ?
添加到谱单
X

添加到谱单

《 Katrina -- 陶喆 》加入
◎ 选择已有谱单 创建新的

公开 (默认不公开,欢迎创建有意思的"公开谱单")

创建取消

推荐语(选填)

X

请先登录chord4


忘记密码