歌手头像-指南針樂隊

我沒有遠方

1 2 3 4 5
x

音乐人: 指南針樂隊

供谱者:mix

Bm     E    D   Bm
藍藍的 天上 白雲 飄
Em       D    Bm
白雲下面 馬兒 跑
D         Bm    D   A
揮動鞭兒  響四  方....
Bm    Em    Bm
百鳥兒 齊飛 翔
D         Bm    D   A
揮動鞭兒  響四  方....
Bm     Em   Bm
百鳥兒 齊飛 翔
Bm
迷失在高樓大廈 鋼 筋 圍牆
Bm
找一點 遺漏下來 的 陽光
E        D
沒有天空 我恍恍惚惚
A                Bm
眼中閃過一片一片 都市的瘋狂
Bm
那麼多 彼此纏繞 相同慾望
Bm
都急急忙忙把我 來阻擋
E        D
追逐着我 所有恐懼目光
A          Bm
冷冷嘲笑我 那些無助的驚慌
D         A
看看 感覺 一天天在蒼老
D         Bm
看看 城市 不能不流浪
D         A          Bm
只想 去到 夢中停留的地方
G         #F
看看我的模樣
Bm E     D Bm
我 要 遠方(你不能去遠方)
Bm E     D Bm
我 要 遠方(這是你的天堂)
Bm E     D Bm
還 我 翅膀(我想要去飛翔)
E      D   Dm
腳下就 是遠方
Bm
迷失在高樓大廈 鋼 筋 圍牆
Bm
找一點 遺漏下來 的 陽光
E        D
沒有天空 我恍恍惚惚
A                Bm
眼中閃過一片一片 都市的瘋狂
Bm
那麼多 彼此纏繞 相同慾望
Bm
又同樣出沒在那 土地上
E        D
驅趕着我 那些恐懼目光
A          Bm
冷冷嘲笑我 那些無助的驚慌

D          A
看看 感覺 一天天在蒼老
D         Bm
看看 城市 不能不流浪
D         A         Bm
只想 去到 夢中停留的地方
G         #F
看看我的模樣
Bm E     D Bm
我 要 遠方(哪裏纔是遠方)
Bm E     D Bm
我 要 遠方(哪裏纔是天堂)
Bm E     D Bm
還 我 翅膀(我無處去躲藏)
E      D   Bm
世界都 一個樣
Bm E     D Bm
我 要 遠方(哪裏纔是遠方)
Bm E     D Bm
我 要 遠方(哪裏纔是天堂)
Bm E     D Bm
還 我 翅膀(我無處去躲藏)
E      D   Bm
世界都 一個樣
Bm E     D Bm
我 要 遠方(哪裏纔是遠方)
Bm E     D Bm
我 要 遠方(哪裏纔是天堂)
Bm E     D Bm
還 我 翅膀(我無處去躲藏)
E      D   Bm
世界都 一個樣


由於原版中電吉他是高把位和絃而小弟又不知道名字所以先寫出低把位的和絃,大家在彈
時可相應的升高把位彈奏。由於電吉他的節奏這裏不好表現沒寫出來,大家可以聽帶子研
究,請見諒。對於上面出現的和絃需要彈金屬效果的可參照下面相應升高把位就可以了。


   Bm        E(Em)        D          A           G           #F
e|---------------------------------------------------------------------------|
B|---------------------------------------------------------------------------|
G|-------------9----------7---------------------12-----------11--------------|
D|--9----------9----------7----------7----------12-----------11--------------|
A|--9----------7----------5----------7----------10------------9--------------|
E|--7--------------------------------5---------------------------------------|



下面是間奏馬頭琴部分的音階,自己扒的若有錯誤請原諒。

e|------------------12~-12-10-12-10-12-14~-----------------------------------|
B|----------10~-12~----------------------------------------------------------|
G|----7-9-11---------------------------------------------7----7-----7-7------|
D|-9~---------------------------------------9-9-9-9-7-7-9--7-9--7-9----------|
A|---------------------------------------------------------------------------|
E|---------------------------------------------------------------------------|


e|-------------------10-------10--12-14-17--------14-14----------------------|
B|---------------12-----10-12---------------15-17-------17-15-15-------------|
G|---9~-9-7-9-11--------------------------------------------------16-16-14-16|
D|-9-------------------------------------------------------------------------|
A|---------------------------------------------------------------------------|
E|---------------------------------------------------------------------------|



e|--------14~--19-21--17-19--14-12--14~--------------------------------------|
B|-15-17---------------------------------------------------------------------|
G|---------------------------------------------------------------------------|
D|---------------------------------------------------------------------------|
A|---------------------------------------------------------------------------|
E|---------------------------------------------------------------------------|
添加到谱单
X

添加到谱单

《 我沒有遠方 -- 指南針樂隊 》加入
◎ 选择已有谱单 创建新的

公开 (默认不公开,欢迎创建有意思的"公开谱单")

创建取消

推荐语(选填)

X

请先登录chord4


忘记密码