歌手头像-指南針樂隊

無法逃脫

1 2 3 4 5
x

音乐人: 指南針樂隊

供谱者:mix

前奏
E||-----------3-----------3--|-----------3--------------|
B||--------3-----3-----3-----|--3-----3-----3-----------|
G||-----0-----------0--------|-----0-----------0-----0--|
D||--------------------------|--------------------0-----|
A||--------------------------|--------------------------|
E||--3-----------------------|--------------------------|


                                                       
-----------3-----------3--|-----------3--------------||
--------3-----3-----3-----|--3-----3-----3-----------||
-----0-----------0--------|-----0-----------0-----0--||
--------------------------|--------------------0-----||
--------------------------|--------------------------||
--3-----------------------|--------------------------||


G5      Em
你眼中還有一團火 
C       D
叫人不知道該如何 
C       
我試着從你的眼中逃脫 
Am
可心中還想把你挽留 
C
不知 不覺 不知不覺 
D
已被你看透 
G5      Em
你問我這些日子是怎樣過 
C       D
沒有你是不是很寂寞 
C 
我依然還是這樣衝動 
Am
我依然還是容易心痛 
C
什麼時候 什麼時候 
D
時間已勿勿 
G5    Em
哦你 是你 
C          D
拉着我的手 一起到夢裏 
G5        Em
是不是 你 真的是你 
C          D
你我 的一切 難道是註定 
G5            Em
我知道你怎麼想 想擁有希望
C
我已不是原來的我 
D
我真的沒有你想象中的好 
G5 
告訴你我怎麼想 
Em
想把你擁抱 
C
看着你無助的眼光 
D
心碎的感覺怎樣才能去歡笑 
G5 
想讓你和我一樣 
Em
放給你一輪太陽去幻想 
C
你卻拒絕對我說 
D
現在的你有多少也有一點變化 
G5       Em
還有一名話要對你講 
C
我所有過錯 
D
你都忘了吧 
添加到谱单
X

添加到谱单

《 無法逃脫 -- 指南針樂隊 》加入
◎ 选择已有谱单 创建新的

公开 (默认不公开,欢迎创建有意思的"公开谱单")

创建取消

推荐语(选填)

X

请先登录chord4


忘记密码