歌手头像-張韶涵

頭號甜心

1 2 3 4 5
x

音乐人: 張韶涵

供谱者:mix

INTRO:
   D                                                               A
E|--------------
E|--------------
B|---10--7-10-10--7-10-10--7-10-7----------10--7-10-10--7-10-10--7-x-x-x-x-x-x-x-x-------------
G|-7---------------------------------7---7-------------------------9-9-9-9-9-9-9-9-------------
D|--------------------------------10-----------------------------------------------------------
A|--------------

    D                                       A     D                                        A
E|-10-10-8-10-8-10--10-8-10-8-10--10-8-10-8-12---10-10-8-10-8-10--10-8-10-8-10--10-8-10-8-12---
B|--------------
D|--------------
E|--------------
B|---10--7-10-10--7-10-10--7-10-7----------10--7-10-10--7-10-10--7-x-x-x-x-x-x-x-x-------------
G|-7---------------------------------7---7-------------------------9-9-9-9-9-9-9-9-------------
D|--------------------------------10-----------------------------------------------------------
A|--------------

    D                                       A     D                                        A
E|-10-10-8-10-8-10--10-8-10-8-10--10-8-10-8-12---10-10-8-10-8-10--10-8-10-8-10--10-8-10-8-12---
B|--------------
D|--------------
E|--------------
B|---10--7-10-10--7-10-10--7-10-7----------10--7-10-10--7-10-10--7-x-x-x-x-x-x-x-x-------------
G|-7---------------------------------7---7-------------------------9-9-9-9-9-9-9-9-------------
D|--------------------------------10-----------------------------------------------------------
A|--------------

    D                                       A     D                                        A
E|-10-10-8-10-8-10--10-8-10-8-10--10-8-10-8-12---10-10-8-10-8-10--10-8-10-8-10--10-8-10-8-12---
B|--------------
D|--------------
E|---------------------------------------------------------------------------------------------

添加到谱单
X

添加到谱单

《 頭號甜心 -- 張韶涵 》加入
◎ 选择已有谱单 创建新的

公开 (默认不公开,欢迎创建有意思的"公开谱单")

创建取消

推荐语(选填)

X

请先登录chord4


忘记密码