歌手头像-張韶涵

隱形的翅膀 (帶示範)

1 2 3 4 5
x

音乐人: 張韶涵

供谱者:mix

Intro:  
         F            Em7            Gsus4                  C     
         
E|---s---9----9-8-------s-----s-----------h---s-------h-----h-------
B|--6^9-----------11--11^13--9^11-9--11-11^9-9^7-7-7-7^6-4-4^6------
G|------------------------------------------------------------------
D|------------------------------------------------------------------
A|------------------------------------------------------------------
E|------------------------------------------------------------------

    Fmaj7   E7      G     Em7  Fsus2         G      C
        s               h
E|--9-11^13-13-11-9-11-9^11-9----------------------------------------
B|-------------------------------------h--p------p-------------------
G|-----------------------------13-11-10^11^10-8-6^5--6---------------
D|-------------------------------------------------------------------
A|-------------------------------------------------------------------
E|-------------------------------------------------------------------


Verse 1、2:

    C          F       C
每一次 都在徘徊孤單中堅強
不去想 他們擁有美麗的太陽
    C    Em      Dm7     G         
每一次 就算很受傷也不閃淚光
我看見 每天的夕陽也會有變化
    Am7    Am7/G F       Am
我知道 我一直有雙隱形的翅膀
我知道 我一直有雙隱形的翅膀
    F    G7  C
帶我飛 飛過絕望
帶我飛 給我希望

Chorus:

    Am   G      F       C
我終於 看到 所有夢想都開花
    Dm7    Em7     G
追逐的年輕 歌聲多嘹亮
    Fmaj7 Em7   Dm7     C
我終於 翱翔 用心凝望不害怕
    Dm7    G       C
哪裏會有風 就飛多遠吧


Break Solo:

         C      C7          F    C    C               Dm7        G
                       s
E|---s------------9^9-9^11--9----9^9---------------------------------
B|--6^9--9--9-9-9--------------9--------------s--------s-----s-------
G|------------------------------------13-11-11^10-8-8-8^6-6-8^10-8---
D|-------------------------------------------------------------------
A|-------------------------------------------------------------------
E|-------------------------------------------------------------------

    E             Am    Am/G         #Fmdim7-5 D7/#F F       G            C
                      s           s
E|-------------8--9--9^11-9-8-9-11^13--13-11-9--s-----------------------------
B|--------6-10---------------------------------9^11-------s------------p------
G|----6-8--------------------------------------------15-15^10-10-8-5-10^8--6--
D|--8-------------------------------------------------------------------------
A|----------------------------------------------------------------------------
E|----------------------------------------------------------------------------



Verse 3:

    C          F       C
不去想 他們擁有美麗的太陽
    C    Em      Dm7     G         
我看見 每天的夕陽也會有變化
    Am7    Am7/G F       Am
我知道 我一直有雙隱形的翅膀
    F    G7  C
帶我飛 給我希望


Chorus:

    Am   G      F       C
我終於 看到 所有夢想都開花
    Dm7    Em7     G
追逐的年輕 歌聲多嘹亮
    Fmaj7 Em7   Dm7     C
我終於 翱翔 用心凝望不害怕
    Dm7    G       C
哪裏會有風 就飛多遠吧


Bridge:

    F   G      F       C
隱形的翅膀 讓夢恆久比天長
    F      G
留一個願望 讓自己想像

Outro:

   Csus2     C/E     G7sus4                 C  
  
E|--9-9--h-----------------------------------------------------------
B|------9^11-9--6-7--9--s-----s-------s------s--9-------7------------
G|---------------------8^10-10^8-6-8-6^8-5--5^6---5-8-----8--6-------
D|----------------------------------------------------8--------------
A|-------------------------------------------------------------------
E|-------------------------------------------------------------------



備註:
1、本譜按原曲編配,有部分地方有小出入請自行調整。
2、部分生僻和絃請查閱和絃手冊或Guitar Pro等軟件。
3、具體請參聽音頻示範,示範由Gain樂隊王嘉演奏,部分地方進行了小即興。
   音頻示範地址:http://music.163888.net/openmusic.aspx?id=3761827
4、樂曲進行升調處理,用C調和絃,變調夾夾一品(1=#C 4/4)
5、原曲速度爲:TEMPO=74;示範爲了方便聽清適當降低了速度。

因本人水平有限,如若有不恰當或錯誤的地方,請琴友們指出。
E-Mail:Whisky1003@163.com Q:40015422


添加到谱单
X

添加到谱单

《 隱形的翅膀 (帶示範) -- 張韶涵 》加入
◎ 选择已有谱单 创建新的

公开 (默认不公开,欢迎创建有意思的"公开谱单")

创建取消

推荐语(选填)

X

请先登录chord4


忘记密码