歌手头像-鄭中基

最愛的人不是你

1 2 3 4 5
x

音乐人: 鄭中基

供谱者:mix


e |-------0-0------------------10-9-----|
B |-0--0H2---3--3----5-------------10---|
G |------------2------4-------7------9--|
D |---2-------2-----6--------7----------|
A |-0--------------4--------7-----------|
E |------------------------7------------|


e |-------0-0-------------2---|
B |-0--0H2---3--3----5----3---|
G |------------2------4---2---|
D |---2-------2-----6-----0---|
A |-0--------------4----------|
E |---------------------------|
   
 A            D
 你剪下我一束髮  繞在無名指上
 A            D
 揚着笑抑着臉說  當作指環好嗎
   C#m     F#m      C#m          F#m
 你等着我回答  DENG DAO FAN QI 淚光
       Bm      D        E
 可是請相信我當時同樣悲傷
 A            D
 愛情啊原來是個  精心設計的謊
 A            D
 每個人都被安排  爲某個人而受傷
   C#m     F#m   C#m     F#m
 她出現得太早  而你來得太晚
       Bm      D       E
 有一天  也會有我這種遺憾
   A               C#m
 最愛的人不是    這不只讓  傷心
   D         Bm        D       E
 但我de心裏還在枯等  一個遠去身影
   A               C#m
 最愛的人不是你    卻忍不住愛上  
   D           Bm
 我真的愛    但永遠無法

   D     E   A
 像愛她般  愛你

添加到谱单
X

添加到谱单

《 最愛的人不是你 -- 鄭中基 》加入
◎ 选择已有谱单 创建新的

公开 (默认不公开,欢迎创建有意思的"公开谱单")

创建取消

推荐语(选填)

X

请先登录chord4


忘记密码