歌手头像-謝霆鋒

彈開

1 2 3 4 5
x

音乐人: 謝霆鋒

供谱者:reecho
曲: 謝霆鋒   詞: 林夕   編: 伍樂城

Intro
    F                           F             Am  C Am
E-|---------------------------|------------------------|
B-|---------------------------|------------------------|
G-|---------------------------|------------------------|
D-|-3p4p3-1-3-4-3-3p4p3-1-3-4-|-3p4p3-1-3-4-3-1--------|
A-|---------------------------|-----------------4-3-1--|
E-|---------------------------|------------------------|

    F                           F             Am  C Am
E-|---------------------------|------------------------|
B-|---------------------------|------------------------|
G-|---------------------------|------------------------|
D-|-3p4p3-1-3-4-3-3p4p3-1-3-4-|-3p4p3-1-3-4-3-1--------|
A-|---------------------------|-----------------4-3-1--|
E-|---------------------------|------------------------|

            Am
  是我要進入我地獄
    F           Em
  別要  比我更恐慌
            Am
  別再去販賣你天堂
    F           Em      C
  若你  不屑我眼光  不要望

    F       C       G F Em
* 幾時由旁述去引導我怎去做
    F       C       D F Em
  慘烈或是愉快亦是我樂與怒
    F       C       Em
  活這麼一次管輿論說好不好 *

    Am
# 彈開  彈開
    Em            F
  埋伏在路旁指點怎算好朋友
    Em              F   Am
  從未冒著風險祝福我別開口
    Am
  彈開  彈開
    Em              G Am F
  拿開這高貴小手閒人別左右
    Em              G       EmD C Am
  難道陷阱還未夠  自己偏想去不需理由 #

            Am
  若你有腳移你玉步
    F           Em
  別要  跟我再跌倒
            Am
  路再遠也是我的路
    F           Em      C
  若你  打算對我好  請過路
  Repeat * # # #


  ------------------------
  Created by 結他友 Studio
  ------------------------
添加到谱单
X

添加到谱单

《 彈開 -- 謝霆鋒 》加入
◎ 选择已有谱单 创建新的

公开 (默认不公开,欢迎创建有意思的"公开谱单")

创建取消

推荐语(选填)

X

请先登录chord4


忘记密码