歌手头像-謝霆鋒

你情人在那裏

1 2 3 4 5
x

音乐人: 謝霆鋒

供谱者:reecho
曲: 伍樂城  詞: 林夕
編配者:Steve Boy

Guitar1: Play Intro & bridge & Chord
Guitar2: Play Solo & Ending
Guitar3: Just play Ending

Intro:
(guitar1)
|------------------------------------6h8--8-10-11----------------|
|-4-6-6/8~--6-4-3-4-9h11~--4h6-4-3-4----------------9/11--9-8-6~-|
|-0-----------------------------------------------8--------------|
|----------------------------------------------------------------|
|----------------------------------------------------------------|
|----------------------------------------------------------------|

             D              F#m     Bm
   如何從濃烈變淡  如何懷念贈他的襯衫
        Bm      F#m      G   A
   猶如夜半的奇談  時候這麼晚
           D       A      F#m     Bm
   別再說他如何  他如何  笑容和字眼
           G             A
   他語調暖和冷  與我無關

            D              F#m
 # 明明同情沒作用  明明你說贈送亦無用
            Bm      F#m      G   A
   平日期待大派溫柔時  你懶得一碰
           D       A          F#m     Bm
   但到你消沈時  失眠時  同情要隨時奉送
           G       A           D D7
   竟發掘我做你  無限熱心的聽衆

          G         A
 * 你情人在那裏  心不心痛
          F#m   Bm       G
   試問我怎麼懂  你情人在那裏
         A      F#m Bm   G
   與他見面才痛哭    在我這裏
       A        F#m Bm
   只得招呼跟告別兩種
           G           A
   無聊地說著最近天氣太蠢
     G           A     D
   怕越說越覺得眉頭越重
           G           A
   (無論用最後這自尊去領功
     G           A     D
   最後這份愛心無力贈送)
   Repeat # * *

Bridge:
(guitar1)
|-------------------------------6h8--8-10-11---------|
|-6/8~--6-4-3-4--11~--4h6-4-3-4----------------9/11--|
|--------------------------------------------8-------|
|----------------------------------------------------|
|----------------------------------------------------|
|----------------------------------------------------|

Solo:
(guitar2)
|--------------------------------|
|-18^--18-16-18-20-18----18------|
|---------------------20----20~--|
|--------------------------------|
|--------------------------------|
|--------------------------------|

The()with T: use your right
hand middle finger to press
on the fret 22.

Ending:
(guitar3)
|-----------------T-----------------------------------------|
|-6/8~--6-4-3-4--(22)--6h8-6-4-3-4--------------------------|
|-----------------------------------------------------------|
|-----------------------------------------------------------|
|-----------------------------------------------------------|
|-----------------------------------------------------------|
(guitar2)
|-----------------17^---------------------------------------|
|-----------------------------------11/13--13-15-16-15-16~--|
|-----------------------------------------------------------|
|-----------------------------------------------------------|
|-----------------------------------------------------------|
|-----------------------------------------------------------|
添加到谱单
X

添加到谱单

《 你情人在那裏 -- 謝霆鋒 》加入
◎ 选择已有谱单 创建新的

公开 (默认不公开,欢迎创建有意思的"公开谱单")

创建取消

推荐语(选填)

X

请先登录chord4


忘记密码