歌手头像-謝霆鋒

回憶是後鏡裏的公路

1 2 3 4 5
x

音乐人: 謝霆鋒

供谱者:reecho
曲: Francis Wai   詞: 李敏   編: Gary Tong
編配者:Steve Boy < ckli28@netvigator.com >

   Intro:
   |----------------------6-5-1h3~--6-5-3-----|
   |--3~--1-3-4~--3-4-6~------------------3~--|
   |------------------------------------------|
   |------------------------------------------|
   |------------------------------------------|
   |------------------------------------------|

   |----------------6-5-6-1h3~--|
   |--1-3-4~--3-4-6-------------|
   |----------------------------|
   |----------------------------|
   |----------------------------|
   |----------------------------|

   Dm       Am      F7     C
   我愛上午夜十二時 這公路
   Dm       Am      F7   C
   破擦過  是道路邊 野草
   Dm     Am      F7
   我笑我並沒地圖卻闖路
    F       C Dm7 Am      Dm   C
   誰人能料到   上路沒目的 太好

    F       C    Dm
  * 時速  恕我不知道
        C         F     C         F
   也不介意我迷了路  即使衝出這國土
    C  Bb     C      F7     C         F
   望著回憶如倒鏡裏那公路  千支街燈向後逃
    C      Bb     C       Bb  C         F
   急彎與直路  輾轉的征途  灑脫一點會較好

   Dm     Am    F7     C
   我愛上在六時 散的霧
   Dm     Am      F7   C
   更悄悄地爲日出 倒數
   Dm       Am      F7
   我發覺我並沒事情要哀悼
    F     C  Dm7   Am      Dm   C
   悠然能明白到  嘆喟又或許 太早

    F       C    Dm
   時速  恕我不知道
        C         F     C         F
   也不介意我迷了路  即使衝出這國土
    C  Bb     C      F7     C         F
   望著回憶如倒鏡裏那公路  千支街燈向後逃
    C      Bb     C       Bb  C
   急彎那弧度  輾轉的征途  孤單的清高
   Bb       C        Bb       C
   從來從無扮作深奧  誰人誰人完全無情操

    C  Bb       C    Dm
   望著回憶  我卻捉不到
        C         F     C         F
   也不介意我迷了路  即使衝出這國土
    C  Bb     C      F7     C         F
   望著回憶如倒鏡裏那公路  千支街燈向後逃
    C      Bb     C       Bb  C
   急彎與直路  輾轉的征途  孤單的清高
   Bb         C      (F)
   閉上兩眼  便會感受到

   Ending Solo:
   |----------------------6-5-1h3-----------|
   |--3~--1-3-4~--3-4-6~----------6/4-4-3~--|
   |----------------------------------------|
   |----------------------------------------|
   |----------------------------------------|
   |----------------------------------------|
             Bb
   |------------------------1--|
   |--1-3-4~-3-4-6/3-1------3--|
   |-------------------3~~--3--|
   |------------------------3--|
   |------------------------1--|
   |------------------------1--|


   By 
Bb=bB=A#
╓—●—┬———┬———┬———┐ 
╟—●—┼———┼—●—┼———┤ 
╟—●—┼———┼—●—┼———┤ 
╟—●—┼———┼—●—┼———┤ 
╟—●—┼———┼———┼———┤ 
╙—●—┴———┴———┴———┘

F7  
╓—●—┬———┬———┬———┐ 
╟—●—┼———┼———┼●——┤ 
╟—●—┼—●—┼———┼———┤ 
╟—●—┼———┼———┼———┤ 
╟—●—┼———┼—●—┼———┤ 
╙—●—┴———┴———┴———┘ 

添加到谱单
X

添加到谱单

《 回憶是後鏡裏的公路 -- 謝霆鋒 》加入
◎ 选择已有谱单 创建新的

公开 (默认不公开,欢迎创建有意思的"公开谱单")

创建取消

推荐语(选填)

X

请先登录chord4


忘记密码