歌手头像-古巨基

愛與誠

1 2 3 4 5
x

音乐人: 古巨基

供谱者:mix
愛與誠 

1|---------|----|
2|-------00|10--|
3|---2202--|--02|
4|024------|----|
5|---------|----|
6|---------|----|
  其實自己一個更開心 只等你講 

1|---------|---|
2|-------03|10-|
3|---2202--|--2|
4|024------|---|
5|---------|---|
6|---------|---|
  其實大家早已嫌大家 卻扮忙

1|-------|------------|
2|0133310|----01110---|
3|-------|--02-----202|
4|-------|22----------|
5|-------|------------|
6|-------|------------|
  恨有多一點碰撞 仍然無聊事幹不敢打攪對方 

1|-----|-----|---------|
2|-----|-010-|3310--0--|
3|0-0-0|2---0|----02-20|
4|-4-4-|-----|---------|
5|-----|-----|---------|
6|-----|-----|---------|
  要是你願意 誠實講一趟 彼此都起碼覺得釋放 

1|---|------------|
2|0-0|--0--0---110|
3|-2-|02-20-2-----|
4|---|-------00---|
5|---|------------|
6|---|------------|
  不要哭 我也忍得了這些年來的委曲 

1|-------|---------|
2|0133101|110-0-0--|
3|-------|---2-0-02|
4|-------|---------|
5|-------|---------|
6|-------|---------|
  沒法真心愛下去 只好真心真意的結束 

1|-----|------|3---|
2|01---|013013|-0--|
3|--200|------|--00|
4|-----|------|----|
5|-----|------|----|
6|-----|------|----|
 *別再做情人 做只貓做只狗 不做情人 

1|------0---|------|--------|
2|013013-1--|--110-|-0----0-|
3|----------|-0---2|2-2022-2|
4|--------22|2-----|--------|
5|----------|------|--------|
6|----------|------|--------|
  做只寵物至少可愛迷人 和你不瞅不睬 最終只會成爲敵人 

1|-02-3|23------|3---|
2|3--3-|--013013|-0--|
3|-----|--------|--00|
4|-----|--------|----|
5|-----|--------|----|
6|-----|--------|----|
  淪爲舊朋友 是否又稱心沒有心 只像閒人 

1|---|02353--|---------|-----|
2|013|-----11|1010---03|010--|
3|---|-------|----202--|---20|
4|---|-------|---------|-----|
5|---|-------|---------|-----|
6|---|-------|---------|-----|
  若有空 難道有空可接吻 註定似過路人∼陌生 你怎麼手震 

1|---|------|
2|101|0---03|
3|---|-202--|
4|---|------|
5|---|------|
6|---|------|
 (這預告 發自虔誠內心)* 

1|---------|----|
2|-------00|10--|
3|---2202--|--02|
4|024------|----|
5|---------|----|
6|---------|----|
  長期被迫戀愛也真比 失戀更慘 

1|---------|---|
2|-------03|10-|
3|---2202--|--2|
4|024------|---|
5|---------|---|
6|---------|---|
  長期扮演若無其事般 更困難 

1|-------|------------|
2|0133310|----01110---|
3|-------|--02-----202|
4|-------|22----------|
5|-------|------------|
6|-------|------------|
  是我專登反應慢 明明爲時甚晚牌一早該要攤 
1|-----|-----|---------|
2|-----|-010-|3310--0--|
3|0-0-0|2---0|----02-20|
4|-4-4-|-----|---------|
5|-----|-----|---------|
6|-----|-----|---------|
  再像我伴侶 仍望多一眼 一生都將會記得今晚 

Repeat * 

1|---|------------|
2|--0|00331031--10|
3|02-|--------00--|
4|---|------------|
5|---|------------|
6|---|------------|
  對不起 自動分手錯愕的你怕會傷感 

1|-23-|---0-------|
2|0--3|003-1--0133|
3|----|-----02----|
4|----|-----------|
5|----|-----------|
6|----|-----------|
  盲目的我 現在也可轉檯來賀你新生 

1|-----|------|3---|
2|01---|013013|-0--|
3|--200|------|--00|
4|-----|------|----|
5|-----|------|----|
6|-----|------|----|
  別再做情人 做只貓做只狗 不做情人 

1|------0---|------|--------|
2|013013-1--|--110-|-0-01013|
3|----------|-0---2|2-2-----|
4|--------22|2-----|--------|
5|----------|------|--------|
6|----------|------|--------|
  做只寵物至少可愛迷人 和你相交不淺 無謂明日會被你憎 

1|-02-3|23------|3---|
2|3--3-|--013013|-0--|
3|-----|--------|--00|
4|-----|--------|----|
5|-----|--------|----|
6|-----|--------|----|
  淪爲舊朋友 是否又稱心沒有心 只像閒人 

1|---|02353--|---------|-----|
2|013|-----11|1010---03|010--|
3|---|-------|----202--|---20|
4|---|-------|---------|-----|
5|---|-------|---------|-----|
6|---|-------|---------|-----|
  若有空 難道有空可接吻 註定似過路人∼陌生 你怎麼手震 
添加到谱单
X

添加到谱单

《 愛與誠 -- 古巨基 》加入
◎ 选择已有谱单 创建新的

公开 (默认不公开,欢迎创建有意思的"公开谱单")

创建取消

推荐语(选填)

X

请先登录chord4


忘记密码