歌手头像-謝霆鋒

不要說謊

1 2 3 4 5
x

音乐人: 謝霆鋒

供谱者:reecho
- 謝霆鋒

曲: HATAKE   詞: 林夕  編: Adrian Chan
編配者:Calvin Fung < calvinfung01@hotmail.com > 
        Tim Au-Yeung < timothi28@hotmail.com  > 

   (有點難度,但非常適合使用撥片演奏)

   Intro :#

   |-------9------------9------|-----9--------7-------|x3
   |----10--10-------10--10----|----7---7----6---6----|
   |-11------------9-----------|-7--------6-----------|
   |---------------------------|----------------------|
   |---------------------------|----------------------|
   |---------------------------|----------------------|
   說過想化做你睡牀        答應你搬到任何地方
   說過請你別要別離        贊過你可愛動人無比
   說過不抱著你會悶        說過放開你便難狂歡


            Bm          Db7
 @:|------5--------7----|x2 |----------x--------|--------x-x-------|repeat # x2
   |----7---7----9---9--|   |--------x---x------|------x-----x-----|       @ x2
   |--7--------9--------|   |------x-------x----|----x---------x---|       $ x1
   |--------------------|   |----x-----------x--|--x-------------x-|
   |--------------------|   |--x----------------|------------------|
   |--------------------|   |-------------------|------------------|
        在那日虔誠渴望      親口跟你講
        但我逐年逐歲改變趣味
        但我舊情被我今晚背叛


 $:|--------14-------------14-|--16^14--------14-------------|
   |-----------14-14----14----|-----------14-----14----14~~--|
   |-----14----------14-------|--------16-----------14-------|
   |--16----------------------|------------------------------|
   |--------------------------|------------------------------|
   |--------------------------|------------------------------|


  *:                    剩下

     Bm        E            A             F#m
   |--------x---x--------|--------x---x--------|--------x---x--------|--------x---x--------|
   |------x-------x------|------x-------x------|------x-------x------|------x-------x------|
   |----x-----------x----|----x-----------x----|----x-----------x----|----x-----------x----|
   |--x---------------x--|--x---------------x--|------------------x--|------------------x--|
   |---------------------|---------------------|--x------------------|---------------------|
   |---------------------|---------------------|---------------------|--x------------------|

          口耳眼鼻   纏住你          該不該歡喜


      Bm            Db7           F#m           F#7
   |--------x---x--------|--------x---x--------|--------x---x--------|--------x---x--------|
   |------x-------x------|------x-------x------|------x-------x------|------x-------x------|
   |----x-----------x----|----x-----------x----|----x-----------x----|----x-----------x----|
   |--x---------------x--|--x---------------x--|--x---------------x--|--x---------------x--|
   |---------------------|---------------------|---------------------|---------------------|
   |---------------------|---------------------|---------------------|---------------------|

       心似羽毛        隨時被吹起
      但願


      Bm             E             Db7          F#m
   |--------x---x--------|--------x---x--------|--------x---x--------|--------x---x--------|
   |------x-------x------|------x-------x------|------x-------x------|------x-------x------|
   |----x-----------x----|----x-----------x----|----x-----------x----|----x-----------x----|
   |--x---------------x--|--x---------------x--|--x---------------x--|--x---------------x--|
   |---------------------|---------------------|---------------------|---------------------|
   |---------------------|---------------------|---------------------|---------------------|

          一旦兌現   留住你          該不該捨棄
       昨晚


      Dbmaj7     Abm7b5        Db7         Db7
   |----x------x-----x--|----x------x-----x--|----x------x-----x--|-------------------|
   |-----x------x-------|------x------x------|------x------x------|-------------------|
   |-------x------x-----|--------x------x----|--------x------x----|-------------------|
   |--x-----------------|--x-----------------|--x-----------------|-------------------|
   |--------------------|--------------------|--------------------|-------------------|
   |--------------------|--------------------|--------------------|-------------------|
      怎可相信今晚的    自己          Hey!!!


   &:
   F#m    A      D    Db
   不要說謊 不要說謊 不要記得 流過的汗
   F#m    A    D  E    F#m
   不再說謊 不再說謊當我比你善忘      Repeat: # @ $ *

   Solo:

   |--------------------------------------------------------|
   |-15~--15-14-15--14h15p14--------------------------------|
   |-------------------------16~----------------------16^---|
   |---------------------------------14h16p14h16p14---------|
   |--------------------------------------------------------|
   |--------------------------------------------------------|

   |------------------------------------------------|
   |-14-15-15-15^15---------------------------------|
   |-----------------13-16-13h14p13--11~------------|
   |------------------------------------------------|
   |------------------------------------------------|
   |------------------------------------------------|

   |----------------------------------14------------------------------|
   |------------------------------------------------------------------|
   |---14-16-16^-16-14-16-16~---14-16------16^-14-16-16----14-16-16^--|
   |-16---------------------------------------------------------------|
   |------------------------------------------------------------------|
   |------------------------------------------------------------------|

   |-19^--16h17p16h17p16--19-19~~-----|
   |----------------------------------|
   |----------------------------------|
   |----------------------------------|
   |----------------------------------|
   |----------------------------------|Repeat: & twice


   |-------------------------------------------------------------|
   |Enjoy Yourselves!                                            |
   |Solo [TAB] Created by Calvin and Tim!!!!                     |
   |-------------------------------------------------------------|

添加到谱单
X

添加到谱单

《 不要說謊 -- 謝霆鋒 》加入
◎ 选择已有谱单 创建新的

公开 (默认不公开,欢迎创建有意思的"公开谱单")

创建取消

推荐语(选填)

X

请先登录chord4


忘记密码