歌手头像-謝霆鋒

舊傷口

1 2 3 4 5
x

音乐人: 謝霆鋒

供谱者:reecho
曲 : 黃中原   詞 : 林利南
Capo: 1   Timing 4/4


   C          Em/B    F         G
 |-----------------------------------|
 |----5/6---6/8----8/10--8--65------|
 |--5---------------------------7----|
 |-5---------------------------------|
 |-----------------------------------|
 |-----------------------------------|

 Am         F    C
 是我不肯走 沒有人要我的自由
         Am         F     G
 別問爲什麼 就當是河流的盡頭
Am      Em  F       C
 一個人進來  如此的容易
    Dm         Em         F      G
 失去你的時候 我才知道那有多難過  有多深刻
     C          Em/B       Am           G
 舊傷口 一直纏著我 一直不讓我走 像多年的朋友
     C          Em/B        Am
 舊傷口 傷了你多久   就跟了我多久
         G            Am
 還不肯放開手 還帶著舊傷口

(PIANO)  Am      Em   Am       F
 |----8-7-5--7--------8-7-8-12-------|
 |--5---------5------5--------10-----|
 |-----------------------------------|
 |-----------------------------------|
 |-----------------------------------|
 |-----------------------------------|
              C               Em/B     Am
 |-------------------5-------------------------|
 |---------------------------------------------|
 |---------------------7-5--5/7---9/7/5--------|
 |----------7/9-----------7--------------------|
 |-5/7-9-10------------------------------------|
 |---------------------------------------------|
   F              Dm       G
 |----------7-8-8/10---8-8/10--------|
 |-----------------------------------|
 |--------7--------------------------|
 |-7-9-10----------------------------|
 |-----------------------------------|
 |-----------------------------------|

         Am         F    C
 是我不肯走 沒有人要我的自由
         Am         F     G
 別問爲什麼 就當是河流的盡頭
Am      Em  F       C
 一個人進來  如此的容易
    Dm               Em         F      G
失去你的時候 我才知道那有多難過  有多深刻
    C          Em/B       Am           G
舊傷口 一直纏著我 一直不讓我走 像多年的朋友
    C          Em/B         Am
舊傷口 傷了你多久   就跟了我多久
        G            Am
還不肯放開手 還帶著舊傷口

                  G             F              Am
|-10/12--10----10-10--10-12-13--13/15-13-12---------|
|-----------13-----------------------------13--13---|
|--------------------------------------------14-----|
|---------------------------------------------------|
|---------------------------------------------------|
|---------------------------------------------------|
          Dm                      G
|---8-10-10^10-8--11/13--11-10--13/15------|
|-8---------------------------------------=|
|------------------------------------------|
|------------------------------------------|
|------------------------------------------|
|------------------------------------------|

    C          Em/B       Am           G
舊傷口 一直纏著我 一直不讓我走 像多年的朋友
    C          Em/B       Am
舊傷口 傷了你多久   就跟了我多久
        G            Am
還不肯放開手 還帶著舊傷口


------------------------
Created by 結他友 Studio
------------------------

添加到谱单
X

添加到谱单

《 舊傷口 -- 謝霆鋒 》加入
◎ 选择已有谱单 创建新的

公开 (默认不公开,欢迎创建有意思的"公开谱单")

创建取消

推荐语(选填)

X

请先登录chord4


忘记密码