歌手头像-黎明

情歸於盡

1 2 3 4 5
x

音乐人: 黎明

供谱者:mix

情歸於盡
歌手:黎明 |  作曲:黃偉文
填詞:雷頌德 |  編曲:雷頌德

G           D
你仍然 當我是情人
Em            D
因爲現在先變心太薄倖
C             G
何以我 發現你不愛我
Am      D
我仍然 全沒戒心

      G
分開 假如難爲誰
      D
一起 一樣是負累
      Em
相戀 仿如懸崖
          D
懸著 離合都太累
C             G
要行刑時你若畏罪
            Am         D
必須解脫的 當我要爭取

          G               D
無能爲力接收 就放手 讓我走
          Em            D
必須粉身碎骨 仍然獨自接受
          C
肯犧牲我若可以獲救
  G         Am            D
就含笑分手 高尚地贏得我傷口

          G               D
懸崖如若太深 就放手 讓我走
          Em            D
苦戀拖得太久 讓我默默退後
          C             G
將一起跌下去 一邊應該放手
            Am      D            G
得不到你 但我能夠 叫你永不擔憂
(掙不開我 讓我出手)

|7-8-10-12-10-|-10--12-14--10-|--15-15---15--14-12|10--12------10-| 
|-------------|---------------|12------12---------|------12--13---|      
|-------------|---------------|-------------------|---------------|
|-------------|---------------|-------------------|---------------|
|-------------|---------------|-------------------|---------------|
|-------------|---------------|-------------------|---------------|

|----10----15-14|--10-----10--|-7--7^8^10----|-15--14-12-10-|
|13----10-------|----12-13----|-----------10-|--------------|
|---------------|-------------|--------------|--------------|
|---------------|-------------|--------------|--------------|
|---------------|-------------|--------------|--------------|
|---------------|-------------|--------------|--------------|

G     D           Em 
你不愛我 還你那自由
        D             C
既然能承受 是你早有預謀
        G           Am     D
何必不放手 一起去墮進深溝

G                       D
明明其實有他 就放手 讓我走
          Em            D
即使粉身碎骨 仍能獨自接受
          C
即使手裏什麼也沒有
  G         Am            D
但還有雙手 掩護著自己那傷口

          G               D
懸崖如若太深 就放手 讓我走
          Em            D
苦戀拖得太久 讓我默默退後
          C             G
不想都跌下去 一邊應該放手
            Am      D       G
掙不開我 讓我出手 你不必擔憂

[REPEAT]

G B/D Em D Em          D       G
             如有罪疚 都交在我手
             
             
             
             
添加到谱单
X

添加到谱单

《 情歸於盡 -- 黎明 》加入
◎ 选择已有谱单 创建新的

公开 (默认不公开,欢迎创建有意思的"公开谱单")

创建取消

推荐语(选填)

X

请先登录chord4


忘记密码