歌手头像-王力宏

永遠的第一天

1 2 3 4 5
x

音乐人: 王力宏

供谱者:reecho
E||--------4--5--------0--2--|-----------0----------|
B||--2--3-----------2--------|--------0-------------|
G||--------------4-----------|--1--2----------------|
D||--------------------------|----------------------|
A||--------------------------|----------------------|
E||--------------------------|----------------------|

--------------------------|----------------------|
--------------------------|----------------------|
--------1--2--------------|----------------------|
-----0--------------2--4--|-----------2----------|
--4-----------2--4--------|-----0--2-------------|
--------------------------|--4-------------------|

|-----------0------------|-------------------|
|--------------0---------|-------------------|
|--------2------------2--|--2----------------|
|--0--2------------------|-------------------|
|------------------------|-------------------|
|------------------------|-------------------|


  A      E       F#m      A         D
深夜 機場冷清好安靜     我終於看見了你
  A        A        Bm       B7  E
穿著風衣 提著行李 聽著MIDI 走來走去
  A      E       F#m      A         D
回憶 傳進心裏全是你     我走過去抱緊你
  A        A        Bm       B7  E
你的聲音 你的笑容 你的淚滴 回到我懷裏
F#m        C#m   A        D       A
  你答應我 今天飛來 帶著你取來的真愛
  D     E         Bm    B7 E
就飛過大海 oh~ 帶愛情回來 Yah~

A              E      F#m            A
 今天看見永遠的第一天  終於實現我和你的諾言
D               A             Bm    D
 時間將一切拉遠 愛在心裏沒有改變
A             E      F#m            A
今天看見愛飛過地平線  當我說完我對你的誓言
D               A             Bm  E7
 這是另一個起點 我一定愛你到永遠 oh~

  A      E       F#m      A         D
回憶 傳進心裏全是你     我走過去抱緊你
  A        A        Bm       B7  E
你的聲音 你的笑容 你的淚滴 回到我懷裏
F#m        C#m   A         D       A
 你答應我  今天飛來  我要在這一秒鐘說
  Bm                      E      B7      E
I Love~I Love~ I Love~ You  說永遠不分開

A             E            F#m            A      E
今天看見永遠的第一天  oh~  終於實現我和你的諾言 woh~
D               A             Bm  E7
時間將一切拉遠  愛在心裏沒有改變 Yah~~~
        A       E         Bm  E
woo ~  第一天看見~  愛的第一天~

          A             E      F#m            A
(今天看見)今天看見永遠的第一天  終於實現我和你的諾言
D               A             Bm  E7
時間將一切拉遠  愛在心裏沒有改變 woh~~

A             E            F#m            A
今天看見愛飛過地平線 oh~  當我說完我對你的誓言
D               A             Bm    A
這是另一個紀念  我一定愛你到永遠 到永遠

F#m=#Fm
╓———┬—●—┬———┬———┐ 
╟———┼—●—┼———┼———┤ 
╟———┼—●—┼———┼———┤ 
╟———┼—●—┼———┼—●—┤ 
╟———┼—●—┼———┼—●—┤ 
╙———┴—●—┴———┴———┘ 
Bm 
╓———┬—●—┬———┬———┐ 
╟———┼—●—┼—●—┼———┤ 
╟———┼—●—┼———┼—●—┤ 
╟———┼—●—┼———┼—●—┤ 
╟———┼—●—┼———┼———┤ 
╙———┴—●—┴———┴———┘ 
B7
╓———┬—●—┬———┬———┐ 
╟———┼—●—┼———┼—●—┤ 
╟———┼—●—┼———┼———┤ 
╟———┼—●—┼———┼—●—┤ 
╟———┼—●—┼———┼———┤ 
╙———┴—x—┴———┴———┘

添加到谱单
X

添加到谱单

《 永遠的第一天 -- 王力宏 》加入
◎ 选择已有谱单 创建新的

公开 (默认不公开,欢迎创建有意思的"公开谱单")

创建取消

推荐语(选填)

X

请先登录chord4


忘记密码