歌手头像-謝霆鋒

影迷

1 2 3 4 5
x

音乐人: 謝霆鋒

供谱者:mix
影迷 

作詞:林夕 作曲:謝霆鋒/孫偉明 編曲:王雙駿

key: E

Solo
E|----4-5-7-5-4---4-|----4-5-4--5-4-------|--------------|--------------|
B|5-7-----------7---|5-7------------4-----|--------4-5-5-|7-5-4---------|
G|------------------|----------------4-6--|6-6-66--------|-----4-6-6---5|
D|------------------|---------------------|--------------|--------------|
A|------------------|---------------------|--------------|--------------|
E|------------------|---------------------|--------------|--------------|

E		G#m
編輯一幅一幅的撮映 
C#m		  G#m
逐段逐段彙集幸福風景 
A		Am
哪怕這個你沒名沒性
              B 
陌生風采卻如明星 

E		G#m
這一批專心偷映眼睛 
C#m		  G#m
這一批拉低些集中映背影 
     A		Am
然後 我愛上你便是物證 
          B
你可以不發聲 

     E   
離幾尺 離幾米
C#m		      A 
離幾遠亦願爲你將身影包圍 
	  B
逃不過我禁制

    E     
人很近 場很細 
    C#m			A
來將你漫步動作的心境拍低 
        B
不要太浪費 

E		G#m
偷映一刻比相戀更好 
C#m		  G#m
若是會面剩下什麼深度 
     A		Am
我知 你愛上那個情人就到 
          B
我不出手也好 

     E   
離幾尺 離幾米 
C#m		      A 
離幾遠亦願爲你將身影包圍 
	  B
逃不過我禁制 

     E   
人很近 場很細 
C#m		      A 
來將你漫步動作的心境拍低 
	  B
不要太浪費 

     E   
離幾尺 離幾米 
C#m		      A 
誰知我是爲什麼肯飾演影迷
 	  B
從不對你面世 

     E   
談戀愛 如很貴 
C#m		      A 
何不靠十萬圖元將心聲拍低
  	  B
誰都不必破費 

E|----4-5-7-5-4---4-|----4-5-4--5-4-------|--------------|
B|5-7-----------7---|5-7------------4-----|--------4-2-1-|
G|------------------|----------------4-6--|6-6-66--------|
D|------------------|---------------------|--------------|
A|------------------|---------------------|--------------|
E|------------------|---------------------|--------------|
添加到谱单
X

添加到谱单

《 影迷 -- 謝霆鋒 》加入
◎ 选择已有谱单 创建新的

公开 (默认不公开,欢迎创建有意思的"公开谱单")

创建取消

推荐语(选填)

X

请先登录chord4


忘记密码