歌手头像-何韻詩

如無意外

1 2 3 4 5
x

音乐人: 何韻詩

供谱者:mix

如無意外  何韻詩
曲:Hocc@goomusic  詞:黃偉文  編:青山大樂隊  
Key:G#  Play:G  Capo:1  Rhythm:Slow rock
ablum:Glam track3

intro:
        |G   D/F#   |G/E  D     |C   G/B     |Am      D |
E|---------|----3--2---------|----3---2--------|----0-------------|------------------|
B|--0-1-3-|3--------3--0-1-|3--------3----0-|1------3----------|3--3--1--0------|
G|---------|--0--------------|--0---------2----|--0------0--2--0-|--------------2---|
D|---------|------------------|--------0--------|-------------------|--------------0---|
A|---------|------------------|------------------|3------2---------|0-----------------|
E|---------|3------2---------|0----------------|-------------------|------------------|

G    D/F#    Em  Em/D   C      G/B      Am     Dsus4
 航程尚有幾多千百里   雲層上平靜得出奇 無聊令人回想起 
G    D/F#/B    Em    Em/D   C      Dsus4       G  D
 其時其實我不想失去了你   然而當時我未能甘於只擁有你 
G         D/F#     Em    Em/D  C         G/B
若是沒有這意外 也許經已快樂地 重回平淡家中等你 
    Am       D      G      D/F#    Em    Em/D   C
計劃明年的婚禮照舊或延期 其實本應這套戲 能幸福的演到尾 
    G/B  Am       D        
但我好奇 想試試企頒獎臺被贊 

bridge:
 |G     D/F#   |G/E  D    | C   G/B    |Am    D
E|------3--2---------|----3---2-------|----0-------------|-----0-2-3--2--0-2-|
B|----0------3--0-1-|3--------3----0-|1------3---------|3--3-----------------|
G|--0----------------|--0---------2----|--0------0--2--0|----------0----------|
D|-------------------|---------0--------|------------------|----------------------|
A|-------------------|-------------------|3---- -2---------|0--------------------|
E|3--------2---------|0----------------|------------------|----------------------|
  美

G        D/F# Em    Em/D  C      G/B      Am     Dsus4
 原來就算終於 打了勝仗  無人在前面的機場 迎來閘門來分享 
G      D/F#   Em  Em/D   C        Dsus4       G  G/C /B
 明明能共你熱戀中收場   然而當時 有別人專機催促我上 
C         D        Em Em D  C      D       Em Em/D
搭上了客機竟然從未降落 高 空 裏 無辦法可以回去了 
        Am Am/A#  C  C/B  Am Am    
你似是風景 縮到最細 消 失   了     
C         D7   Dsus4 
無奈在這刻你才重要 

G         D/F#     Em      Em/D  C         G/B 
若是沒有這意外 也許經已快樂地   重回平淡家中等你 
    Am       Dsus4   G     D/F#    Em    Em/D   C
聽著懷中的心跳贊造物神奇 其實本應這套戲 能幸福的演到尾 
    G/B  Am       Dsus4 
但我好奇 想到處看到處飛 
G         D/F#    Em    Em/D    C         G/B 
若是沒有這意外也許經已快樂地   重回平淡家中等你 
    Am       Dsus4   G    
決定孩子應該叫約翰或瑪姬
    D/F#    Em    Em   Em/D Em/C#
還是當初揀了你 如沒意外到分手結尾
  Dsus4    
我退出才合  

ending:       
 |G       D/F#      |G/E  D      |C       G/B     |Asus4  D |G | 
E|---------------------------|--------------------|------0---0--0---0-----|--------------|3--|
B|------0----0--------0--0-|--------------------|--------3-------3---3---|3----1-0----|0--|
G|----0---2--------0---2---|2----0--2----2/4-|----0-----------------0-|2----------2-|0--|
D|--0------------0----------|---0-------0------|--2----------------------|-----------0-|0--|
B|---------------------------|-------------------|3-------------2----------|0------------|2--|
E|3------------2------------|0--------0--------|--------------------------|-------------|3--|
  理

添加到谱单
X

添加到谱单

《 如無意外 -- 何韻詩 》加入
◎ 选择已有谱单 创建新的

公开 (默认不公开,欢迎创建有意思的"公开谱单")

创建取消

推荐语(选填)

X

请先登录chord4


忘记密码