歌手头像-謝霆鋒

勇者之歌

1 2 3 4 5
x

音乐人: 謝霆鋒

供谱者:reecho
編配者:搖滾靈魂
-------------------------------------------------------------------

1=D 轉 B 4/4

本曲的和絃與前奏、間奏及尾奏是按原曲編配的。

謝霆鋒 - 勇者之歌
詞曲:FIR阿沁

前奏

-------------|---------------|----------------|------------^----|
----3--2-----|-----3--2------|------3--2------|-----3--2--3-5---|
---------2---|-----------2---|------------2---|-----------------|
-------------|---------------|---2------------|--2--------------|
-3-----------|--5------------|----------------|-----------------|

-------------|---------------|----------------|-----3--2--------|
----3--2-----|-----3--2------|------3--2------|-----------------|
---------2---|-----------2---|------------2---|-----------------|
-------------|---------------|---2------------|--2--------------|
-3-----------|--5------------|----------------|-----------------|

G             A           Bm
---^--------|---^--------|---^-----------5--^--|
-------3--3-|-------3--3-|------3--2--3----5-7-|
--1-2-------|--1-2-------|--1-2----------------|
------------|------------|---------------------|
------------|------------|---------------------|
------------|------------|---------------------|

 G                 A             Bm    B
--^--------|---^-----------------^------^--|
------3-3--|--------3--3--2------------5-7-|
-1-2-------|--1-2------------2--2-4--------|
-----------|-------------------------------|
-----------|-------------------------------|
-----------|-------------------------------|

[轉1=B]

E             #F
風吹過臉旁我的美麗海洋
#Dm           #Gm
這個世界還有天堂
E               #F
愛你就從今天開始慢慢滋長
#Dm           #Gm
撫平一切受過的傷
[轉1=D]
G     D
你和我一樣
    A       Bm
都在期待一道光
     A      Bm
遇到彩虹的魔法
[轉1=B]
#F
跟著他
[轉1=D]
         G                A
DON’T GIVE UP``` NEVER GIVE UP```
     Bm
明天還有希望
    G      A     Bm   B
忍著傷 它會給你力量
           G               A
DON’T GIVE UP```NEVER GIVE UP```
    Bm
誰說沒有夢想
    G      A    Bm   B
我知道淚水會被釋放

    G                       D                   A           Bm
----^-------------------^--|-----------------|------------|---^------|
--10-12--12-12-12--12------|-----------------|------------|----------|
-----------------------9-11|--7-----7---7--9-|--6---------|----------|
---------------------------|------9---9------|---------7--|--7-9-----|
---------------------------|-----------------|------------|----------|
---------------------------|-----------------|------------|----------|


G                           A                  Bm                B
----^-------------------^--|-----------------|---^--------12-14--11-|
--10-12--12-12-12--12------|-----------------|-10-12----------------|
-----------------------9-11|-9---------11----|----------------------|
---------------------------|-----12-14-------|----------------------|
---------------------------|-----------------|----------------------|
---------------------------|-----------------|----------------------|

[轉1=B]
E             #F
諾你的心裏還有一點恐慌
#Dm           #Gm
記得我在等你招換
E               #F
愛已作出今天陪你乘風破浪
#Dm           #Gm
永遠其實非常簡單
[轉1=D]
G      D
你 和我一樣
A           Bm
都在期待一道光
A           Bm
遇到彩虹的魔法
[轉1=B]
#F
跟著他
[轉1=D]
           G               A
DON’T GIVE UP```NEVER GIVE UP```
    Bm
明天還有希望
     G     A    Bm  B
忍著傷它會給你力量
           G               A
DON’T GIVE UP```NEVER GIVE UP```
    Bm
誰說沒有夢想
     G     A    Bm
我知道淚水會被釋放

G             A           Bm
---^--------|---^--------|---^-----------5--^--|
-------3--3-|-------3--3-|------3--2--3----5-7-|
--1-2-------|--1-2-------|--1-2----------------|
------------|------------|---------------------|
------------|------------|---------------------|
------------|------------|---------------------|
 G                 A             Bm    B
--^--------|---^-----------------^------^--|
------3-3--|--------3--3--2------------5-7-|
-1-2-------|--1-2------------2--2-4--------|
-----------|-------------------------------|
-----------|-------------------------------|
-----------|-------------------------------|


           G               A
DON’T GIVE UP```NEVER GIVE UP```
    Bm
明天還有希望
     G     A    Bm   B
忍著傷它會給你力量
           G               A
DON’T GIVE UP```NEVER GIVE UP```
    Bm
誰說沒有夢想
    G     A     Bm
我知道淚水會被釋放

G                    A                 Bm
---^-------------^--|----------------|-------------|---^--------|
-10-12-12-12-10-----|----------------|-------7--10-|-10-12-12---|
----------------9-11|--9-------------|-----7-------|------------|
--------------------|-----12-11------|7--7---------|------------|
--------------------|---------------9|--9----------|------------|
--------------------|----------------|-------------|------------|

G                  A          B
---^-------------|--^-^--------^------|----------|
--8-10-10-10---8-|-7-8-7------5-7-----|----8-----|
-----------------|--------9-8-----9-8-|--9---9---|
-----------------|--------------------|----------|
-----------------|--------------------|----------|
-----------------|--------------------|----------|

G             A                    Bm
--^---10-10--|--^---10-10---|--^----10-9-10--17--|
-8-10--------|-8-10---------|-8-10---------------|
-------------|--------------|--------------------|
-------------|--------------|--------------------|
-------------|--------------|--------------------|


                G                 A                 Bm        B
--12^14---12-10--9^10^9------|-----9^10^9----------^------|---9^11-11|
------------------------10-10|------------10-10--10-12-12-|----------|
-----------------------------|----------------------------|----------|
-----------------------------|----------------------------|----------|
-----------------------------|----------------------------|----------|
-----------------------------|----------------------------|----------|

Am7
╓———┬———┬———┬———┐ 
╟—●—┼———┼———┼———┤ 
╟———┼———┼———┼———┤ 
╟———┼—●—┼———┼———┤ 
╟———┼———┼———┼———┤ 
╙—×—┴———┴———┴———┘ 
F#
╓———┬—●—┬———┬———┐ 
╟———┼—●—┼———┼———┤ 
╟———┼—●—┼—●—┼———┤ 
╟———┼—●—┼———┼—●—┤ 
╟———┼—●—┼———┼—●—┤ 
╙———┴—●—┴———┴———┘
D#m(6)
╓—6—┬———┬———┬———┐ 
╟—●—┼—●—┼———┼———┤ 
╟—●—┼———┼—●—┼———┤ 
╟—●—┼———┼—●—┼———┤ 
╟—●—┼———┼———┼———┤ 
╙—x—┴———┴———┴———┘
G#m=#Gm
╓—4—┬———┬———┬———┐ 
╟—●—┼———┼———┼———┤ 
╟—●—┼———┼———┼———┤ 
╟—●—┼———┼—●—┼———┤ 
╟—●—┼———┼—●—┼———┤ 
╙—●—┴———┴———┴———┘

添加到谱单
X

添加到谱单

《 勇者之歌 -- 謝霆鋒 》加入
◎ 选择已有谱单 创建新的

公开 (默认不公开,欢迎创建有意思的"公开谱单")

创建取消

推荐语(选填)

X

请先登录chord4


忘记密码