歌手头像-謝霆鋒

你微笑時好美

1 2 3 4 5
x

音乐人: 謝霆鋒

供谱者:reecho
編配者:王嘉(提供)
--------------------------------------------------------------

詞:姚謙  曲:遊鴻明  唱:謝霆鋒
曲調:1=G4/4  速度=67 編配:王嘉


          Em   D      Em/A      C   D     Em/B
E-----10---s--------------------------------------
B-7-8-----7^8-7--------s---------s----------------
G------------------7--7^9-----7-7^9-7^7----s------
D----------------9---------10-----------7-7^9--9--
A-------------------------------------------------
E-------------------------------------------------

  Em          D          Em/A                Cmaj7
E--h-----------------------h--------------s-------
B-7^8-7^7-10-10-10-10-8-7-7^8-7---7--s--10^12-12-12
G-------------------------------9---7^9-----------
D-------------------------------------------------
A-------------------------------------------------
E-------------------------------------------------

        D         Em
E--------h----------------------------------------
B-12-12-7^8-7^7-----------------------------------
G---------------7--s------------------------------
D-----------------7^9-----------------------------
A-------------------------------------------------
E-------------------------------------------------


  Em          D   Am  Cmaj7   D     Em
誰都看見 你眼眶有淚 現在誰也不敢打擾誰
我也曾經 眼眶忍著淚 擁抱回憶卻面對明天
  Em          D   Am    Cmaj7   D     Em
我卻不想 讓你繼續墜 讓懷疑帶你離人羣太遠
因爲愛你 激起我去追   更好的明天與你相戀
Em        C     D     G    Bm Em     Cadd9  D G
這世界還很美 看我們選擇甚麼視野 如果你願意麪對
Em        C     D     G       Bm    Em   Cadd9  D Em
你微笑時好美 當你發現明天的無限所有機會 爲愛和解

 Em               D            Em/A
E--------s-----h-s-------h-p------------17-17-17--
B---8-7-7^8-8-7^8^10-10-7^8^7-----s---------------
G------------------------------7-7^9^9------------
D-9-----------------------------------------------
A-------------------------------------------------
E-------------------------------------------------

  Cadd9       D                    Em
E---------s---------------------------------------
B-15-15-15^17------------p-----p-----h---15-------
G-------------14-14-14-14^12-14^12-14^16----16-16-
D-------------------------------------------------
A-------------------------------------------------
E-------------------------------------------------

由於本人水平有限,如若有不恰當及錯誤的地方,歡迎交流指出.

Cmaj7 
╓———┬———┬———┬———┐ 
╟———┼———┼———┼———┤ 
╟———┼———┼———┼———┤ 
╟———┼—●—┼———┼———┤ 
╟———┼———┼—●—┼———┤ 
╙———┴———┴———┴———┘
Cadd9
○———┬———┬———┬———┐ 
╟———┼———┼—●—┼———┤ 
○———┼———┼———┼———┤ 
╟———┼—●—┼———┼———┤ 
╟———┼———┼—●—┼———┤ 
x———┴———┴———┴———┘

添加到谱单
X

添加到谱单

《 你微笑時好美 -- 謝霆鋒 》加入
◎ 选择已有谱单 创建新的

公开 (默认不公开,欢迎创建有意思的"公开谱单")

创建取消

推荐语(选填)

X

请先登录chord4


忘记密码