歌手头像-謝霆鋒

假天真

1 2 3 4 5
x

音乐人: 謝霆鋒

供谱者:reecho
編配者:7682894 (提供)
-------------------------------------------------------------------------------


   guitar1(Distortion)
   guitar2(Distortion)
   guitar3(Acoustic)

   Intro: guitar1

       B   Mute
   |--2---x--|
   |--4---x--|
   |--4---x--|
   |--4---x--|
   |--2---x--|
   |--2---x--|

   Chorus: guitar1,2,3

  B      F#
 * 真天真  假天真
 E          F#
   我怕我忘了怎麼區分
 B      F#
   七分假  叄分真
 E          F#
   也夠我共你一次又一次熱
       B
       吻
   |--2--------------|
   |--4--------------|
   |--4--------------|
   |--4--------------|
   |--2--------------|
   |--2--------------|
   (this bar use guitar2,3)
       E   B   C#  F#
   |--0---2---4---2--|
   |--0---4---6---2--|
   |--1---4---6---3--|
   |--2---4---6---4--|
   |--2---2---4---4--|
   |--0---2---4---2--|

   ! Guitar1彈B時,guitar2,3同時彈E !

   Bridge: guitar1,2,3

      E   B   C#  F#
   |--0---2---4---2--|
   |--0---4---6---2--|
   |--1---4---6---3--|
   |--2---4---6---4--|
   |--2---2---4---4--|
   |--0---2---4---2--|

   Verse 1: guitar3

   B        F#
   若你有話要了決  對我耳邊說
             E             F#
   留低一點溫暖  融化我這一雙黑眼圈
   B        F#
   極有禮貌對我說  你要斷一斷
             E             F#
   還肯親自解決  還說我有更好可以選

   Verse 2: guitar3

 F#           E
   假的好處  隨手分些給我
       B
   不要等  假的興奮
     E      F#
   仍叫我太開心

   Solo: guitar1,3 just play the chord
         but i can’t make the guitar2 solo

     | A | B | E | B | E | B | E | B |

   Repeat *

   Last Chorus: guitar1,2,3

  B      F#
 * 真天真 假天真
 E          F#
   我怕我忘了怎麼怎麼區分
 B      F#
   七分假  叄分真
 E          F#          B
   也夠我共你一次又一次熱吻

   Ending: guitar2,3

       E   B   C#  F#             E   B   C#  F#   B
   |--0---2---4---2--|-----------0---2---4---2----2--|
   |--0---4---6---2--|-----------0---4---6---2----4--|
   |--1---4---6---3--|+guitar1--1---4---6---3----4--|
   |--2---4---6---4--|-----------2---4---6---4----4--|
   |--2---2---4---4--|-----------2---2---4---4----2--|
   |--0---2---4---2--|-----------0---2---4---2----2--|

添加到谱单
X

添加到谱单

《 假天真 -- 謝霆鋒 》加入
◎ 选择已有谱单 创建新的

公开 (默认不公开,欢迎创建有意思的"公开谱单")

创建取消

推荐语(选填)

X

请先登录chord4


忘记密码