歌手头像-謝霆鋒

別來無恙

1 2 3 4 5
x

音乐人: 謝霆鋒

供谱者:reecho
編配者:nicolviva(提供)
曲調:1=C
-------------------------------------------------------------------------------

E|----------------------------------------0-----|E PLAY
B|--0----0----------0----0-------0----0---------|B THIS
G|-----0----0----------0----0-------0---0---0---|G 2X
D|----2-2--2-2--------4-4--4-4-----5-5-5-5-5-5--|D
A|--3---------------5------------7--------------|A
E|----------------------------------------------|E

E|--------------------------|E
B|--------------------------|B
G|-----0---0---0---0--------|G
D|----2---4---2---4---------|D
A|--3---5---3---5-----2-----|A
E|--------------------------|E

C             G           Am
E|-------------|--3--------|------------0--------|x2
B|--1----1-----|-------0---|--1-----1-------1----|
G|-----0----0--|-----0---0-|------2---2---2---2--|
D|----2-2--0-0-|----0-0-0--|-----2-2-2-2-2-2-2-2-|
A|--3----------|-----------|--0------------------|
E|-------------|--3--------|---------------------|

  凌晨和長夜    天空也一   樣
  ?#64;裏和南極的  星星  都會發光

C             G           Am                    F(bar1)       G           C
E|-------------|-----------|------------0--------|-------------|-----------|--------------x--|
B|--1----1-----|--0----0---|--1-----1-------1----|--1----1-----|--0----0---|--1-----1--1--x--|
G|-----0----0--|-----0---0-|------2---2---2---2--|-----2----2--|-----0---0-|-----0----0---x--|
D|----2-2--0-0-|----0-0-0--|-----2-2-2-2-2-2-2-2-|----3-3--3-3-|----0-0-0--|----2-2--2----x--|
A|--3----------|-----------|--0------------------|--3----------|-----------|--3-----------x--|
E|-------------|--3--------|---------------------|-------------|--3--------|--------------x--|

從前前日到今天 也不變樣                         任何事或物 從沒更改?#64;狀況

F(bar1)      G            Am                    F(bar1)      G            C
E|------------|------------|------------0--------|------------|------------|-------|
B|--1----2----|--0---------|--1-----1-------1----|--1---2-----|--0---------|--1----|
G|-----2---2--|--------0---|------2---2---2---2--|-----2---2--|--------0---|-----0-|
D|----3-3-3-3-|------0---0-|-----2-2-2-2-2-2-2-2-|----3-3-3-3-|------0---0-|----2--|
A|--3---------|-----0-0-0--|--0------------------|--3---------|-----0-0-0--|--3----|
E|------------|--3---------|---------------------|------------|--3---------|-------|

  我會永遠欣   賞你  任何模樣                   我會永遠喜    歡你符合心

G      Am      Em       F(bar1)          G              C             G
E|------|-------|-------|----------------|------------x-|-------------|---------|
B|--3---|--1----|--0----|--1----1---1--1-|--0----0--0-x-|----1----1---|--0----0-|
G|----0-|-----2-|-----0-|-----2---2------|-----0---0--x-|-------0---0-|-----0---|
D|---0--|----2--|----2--|----3-3-3-3-----|----0-0-0---x-|------2-2-2--|----0-0--|
A|------|--0----|--2----|--3-------------|------------x-|----3--------|---------|
E|--3---|-------|-------|----------------|--3---------x-|-------------|--3------|

   中     的      理         想     與眼   光             爲你 我在哪樣情況

Am                F(bar1)        G          Am            C              G
E|-----------0-----|--------------|----------|-----------0-|--------------|---------|
B|--1----1-------1-|----1----1----|--0-----0-|--1----1-----|----1-----1---|--0----0-|
G|-----2---2---2---|-------2---2--|-----0----|-----2---2---|--------0---0-|-----0---|
D|----2-2-2-2-2-2--|------3-3-3-3-|----0-0---|----2-2-2-2--|-------2-2-2--|----0-0--|
A|--3--------------|----3---------|----------|--3----------|----3---------|---------|
E|-----------------|--------------|--3-------|-------------|--------------|--3------|

營造出美麗印象     無論哪次我與你再  相見    別來無恙     沒有半路感受迷惘

Am                    F(bar1)  F(bar1)   G                C
E|-----------0---------|--------|---------|--------------x-|---x---|E
B|--1----1-------1-----|--1---1-|--1---1--|--0----0------x-|---x---|B
G|-----2---2---2----2--|----2---|----2----|-----0---0----x-|---x---|G
D|----2-2-2-2-2-2--2-2-|---3-3--|---3-3---|----0-0-0-0---x-|---x---|D
A|--3------------------|--3-----|--3------|--------------x-|---x---|A
E|---------------------|--------|---------|--3-----------x-|---x---|E

   從來心態都一樣    無論世事怎樣變路會是近或遠朝著你所在那一方  是我方向

SOLO
E|--------010-----------0310-----------010---------0310----5--5------57--7---5-7-8-7-5-7-8-7--
B|----013---31315313--013----3135310-013---31313-012----3131----33---3-----55-----------------
G|--2----------------2--------------2-----------2---------------------------------------------
D|--------------------------------------------------------------------------------------------
A|--------------------------------------------------------------------------------------------
E|--------------------------------------------------------------------------------------------

-578757875785788---1010------1012-12--------101212^-------101212-^--------------|*USE A PICK
-------------------------88-8-------1010-10--------101212^---------101212^10----|IS BETTER
--------------------------------------------------------------------------------|TO PLAY THIS
--------------------------------------------------------------------------------|SOLO
--------------------------------------------------------------------------------|
--------------------------------------------------------------------------------|

|C|G|Am|Em|F          G
           我會永遠欣賞你
    Am    F        G       C G AmEmF     G
任何模樣 我會永遠喜歡你符合心中的理想與眼光
     C           G      Am
爲你 我在哪樣情況營造出美麗印象
               F                G
無論哪次我與你再相見
     Am       C        G      Am
別來無恙  沒有半路感受迷惘從來心態
           F          F
都一樣無論世事怎樣變路會是近或遠朝著你
G                C
所在那一方是我方向 E|----013---|E
        C           G      Am
爲你 我在哪樣情況營造出美麗印象
               F                G
無論哪次我與你再相見
     Am       C        G      Am
別來無恙  沒有半路感受迷惘從來心態
           F          F                G
都一樣無論世事怎樣變路會是近或遠朝著你 所在那一方


E|----------------------------------------0-----|E PLAY
B|--0----0----------0----0-------0----0---------|B THIS
G|-----0----0----------0----0-------0---0---0---|G 2X
D|----2-2--2-2--------4-4--4-4-----5-5-5-5-5-5--|D
A|--3---------------5------------7--------------|A
E|----------------------------------------------|E

E|--------------------------------------0------------|
B|---------0----0----0------0------------------------|
G|----0--0----0---0------0------0--------------------|
D|---2--4----2-2-2-2---4--4---4---4------------------|
A|--3--5---3---------5------------------7------------|
E|---------------------------------------------------|

添加到谱单
X

添加到谱单

《 別來無恙 -- 謝霆鋒 》加入
◎ 选择已有谱单 创建新的

公开 (默认不公开,欢迎创建有意思的"公开谱单")

创建取消

推荐语(选填)

X

请先登录chord4


忘记密码