歌手头像-謝霆鋒

邊走邊愛

1 2 3 4 5
x

音乐人: 謝霆鋒

供谱者:reecho
編配者:李隋 (提供)
-------------------------------------------------------------------------------

變調夾夾在五品
|----------0------------3--|------------1-----------|
|----0-1-0------0-1---0----|----0-1---0-------0-----|
|--2----2-----2-----2------|--2-----2------0-2-2-0--|
|--|----------|------------|--|------------|------2-|
|--0----------|------------|--|------------|--------|
|-------------3------------|--1------------3--------|

|----------0------------3--|------------1-----------|
|----0-1-0------0-1---0----|----0-1---0-------0-----|
|--2----2-----2-----2------|--2-----2------0-2-2-0--|
|--|----------|------------|--|------------|------2-|
|--0----------|------------|--|------------|--------|
|-------------3------------|--1------------3--------|

|----------0------------3--|------------1-----------|
|----0-1-0------0-1---0----|----0-1---0-------0-----|
|--2----2-----2-----2------|--2-----2------0-2-2-0--|
|--|----------|------------|--|------------|------2-|
|--0----------|------------|--|------------|--------|
|-------------3------------|--1------------3--------|
   從   指   尖     跨過亂   發     到夢魂內 
   蒲   公   英     跟你共   舞     飛得再高
|----------------------------|---------------|
|------------1------0-----3--|--010----------|
|------2----------0-----0----|--|---0--------|
|--0-3---0-2----2-----2------|--|-----0------|
|----------------------------|--|-------3-2--|
|----------------------------|--3------------|
   從    枕     邊    走出世  外
   還    可     走    幾多裏  路
|----------0------------3--|------------1-----------|
|----0-1-0------0-1---0----|----0-1---0-------0-----|
|--2----2-----2-----2------|--2-----2------0-2-2-0--|
|--|----------|------------|--|------------|------2-|
|--0----------|------------|--|------------|--------|
|-------------3------------|--1------------3--------|
   從   沙   丘     穿過鬧   市     繼續期待
   從   相   識     走到共   處     接近同步
|----------------------------|---------------|
|------------1------0-----3--|--010----------|
|------2----------0-----0----|--|---0--------|
|--0-3---0-2----2-----2------|--|-----0------|
|----------------------------|--|-------3-2--|
|----------------------------|--3------------|
   從   車   站     步向月     臺        懷着 
   下   一   站     就變陌     路
  C           G             Dm           Am
|-*-----*-----*-----------|-*-----*------*-----*-----|
|-|---*----*--|-----*-----|-|---*-----*--|---*-----*-|
|-|-*----*----|---*-----*-|-|-*-----*----|-*-----*---|
|-|-----------|-*-----*---|-*------------|-----------|
|-*-----------|-----------|--------------*-----------|
|-------------*-----------|--------------------------|
  浪蕩   的   心情         觀賞這牽手 的 旅程
 Dm            Bm7-5         E7          掃
|-*-----*------------------|-------*-----/-|
|-|---*-----*--3-----3-----|---------*---|--|
|-|-*----*-----|---2-----2-|-----*-----*-|--|
|-*------------|-3-----3---|---*---------|--|
|--------------2-----------|----------------|
|--------------------------|-*--------------|
 崎嶇的足以令  你與我人事不 省
Am         Dm        G           E7
每次我其實都想告訴你 好不好棲息在快樂園地
我怕我無論怎加倍愛你 都不可安居在快樂園地
Dm           Bm7-5      E
只可惜風太大你太快還是我在路上遺留下自己
一早知車太慢你太快寧願我在路上遺留下自己
Am          Dm       G              E7
這一生這麼長趕上了你 偏不知終點時你在何地
這一生多僥倖趕上了你 不想知終點時你在何地
Dm          Bm7-5       E--------E
感激這幾里路我與你纏在一起   到別離  (彈前奏)
不管幾多里路也試過纏在一起   
         Am                     Dm           
        |--------------------------------1---|
        |-*-----------3-----0----3-----3---3-|
        |-|---*---*--------------|-0-2-------|
        |-|-*---*---*---2-3---3--0-----------|
        |-*----------------------------------|
        |------------------------------------|
未算別離
 E7                               Am(掃)
|-0-------0-----------------------/
|-|-----0---3---3-----------------|
|-|---1-------1---1---1-----------|
|-|-2---------------2---2---2-----|
|-|-----------------------2---2---|
|-0-----------------------------4-|
添加到谱单
X

添加到谱单

《 邊走邊愛 -- 謝霆鋒 》加入
◎ 选择已有谱单 创建新的

公开 (默认不公开,欢迎创建有意思的"公开谱单")

创建取消

推荐语(选填)

X

请先登录chord4


忘记密码