歌手头像-兒歌童謠

兩隻老虎

1 2 3 4 5
x

音乐人: 兒歌童謠

供谱者:crony
兩隻老虎
歌手:兒歌
編配者:Alex
--------------------------------------
原調: 1=D  選調: 1=C  Capo=2
  
start_of_tab
|-----0--2-----|-----0--2-----|--2--3--5--|--2--3--5--|
|--------------|--------------|-----------|-----------|
|--------------|--------------|-----------|-----------|
|--0--------0--|--0--------0--|-----------|-----------|

|--5--7--5--3--2-----|--5--7--5--3--2-----|--0--------|--0--------|
|--------------------|--------------------|-----------|-----------|
|--------------------|--------------------|-----2-----|-----2-----|
|-----------------0--|-----------------0--|--------0--|--------0--|
end_of_tab

      

添加到譜單
X

添加到譜單

《 兩隻老虎 -- 兒歌童謠 》加入
◎ 選擇已有譜單 創建新的

公開 (默認不公開,歡迎創建有意思的"公開譜單")

創建取消

推薦語(選填)

X

請先登錄chord4


忘記密碼

我来回应