歌手头像-上野耕路

I See Reflections In Your Eyes

1 2 3 4 5
x

音乐人: 上野耕路

供谱者:crony
I See Reflections In Your Eyes
歌手:上野耕路
編配者:德永
--------------------------------------
原調: 1=D  選調: 1=C  Capo=2
  
start_of_tab
|------------1--------6-4---1-3-1-1-|
|-1-3-1--1-4--1-4-1-4----1-4-----1-4|
|3------3--------3------------------|
|-----------------------------------|

|------------1--------6-4---1-3-1-1-|
|-1-3-1--1-4--1-4-1-4----1-4-----1-3|
|3------3--------3------------------|
|-----------------------------------|

|-------------------------|
|-3-1-3-1-3-1-3-1-3-1-3---|
|-------------------------|
|-------------------------|

|-------------------------|
|-3-1-3-1-3-1-3-1-3-1-3---|
|-------------------------|
|-------------------------|

|-------------------------|
|-3-1-3-1-3-1-3-1-3-1-3---|
|-------------------------|
|-------------------------|

|-----1-3-4-6---4-3-------|
|-3-4---------4-----------|
|-------------------------|
|-------------------------|

      

添加到譜單
X

添加到譜單

《 I See Reflections In Your Eyes -- 上野耕路 》加入
◎ 選擇已有譜單 創建新的

公開 (默認不公開,歡迎創建有意思的"公開譜單")

創建取消

推薦語(選填)

X

請先登錄chord4


忘記密碼

我来回应