歌手头像-兒歌童謠

種太陽

1 2 3 4 5
x

音乐人: 兒歌童謠

供谱者:crony
種太陽
歌手:兒童歌曲
--------------------------------------
原調: 1=C  選調: 1=G  
start_of_tab
|-2-2-----2-2---|-0-0-----0-0---|
|-3---3-------3-|-2---2-------2-|
|-2-----2-------|-2-----2-------|
|-0-------------|-2-------------|
end_of_tab
start_of_tab
|-2-0-----0-------|---2-0------------------|
|-3---3-2---3-2-0-|-------3----------------|
|-2---------------|-2-----2----------------|
|-0---------------|-------0----------------|
end_of_tab


我有[G]一個美麗[G]的願望   長大[G]以後能播種[Am]太陽
播種[Am]一顆一顆[Am]就夠了   會結[D7]出許多的許多[G]的太陽
一顆[G]送給送給[G]南極   一顆[D7]送給送給[D7]北冰洋
一顆[Am]掛在掛在[Am]冬天   一顆[D7]掛在晚上[D7]掛在晚[G]上
[G]啦啦啦   種太陽      [D7]啦啦啦 種太陽
[G]啦啦啦啦   [Am]啦啦啦啦   [D7]種太[G]陽
[Am]到那個[D7]時候   世界[Am]每個[D7]角落
都[Am]會變得   都會[D7]變得   溫[Am]暖   又   [D7]明   [G]亮

      

添加到譜單
X

添加到譜單

《 種太陽 -- 兒歌童謠 》加入
◎ 選擇已有譜單 創建新的

公開 (默認不公開,歡迎創建有意思的"公開譜單")

創建取消

推薦語(選填)

X

請先登錄chord4


忘記密碼

我来回应