歌手头像-蔡哈哈

只想一生跟你走

1 2 3 4 5
x

音乐人: 蔡哈哈

供谱者:crony
只想一生跟你走
歌手:蔡哈哈
--------------------------------------
原調: 1=G  選調: 1=G  Capo=0
  
[G]     [Em]     [C]     [Am7] [D]     [C]     [D]
start_of_tab
|-------------|-------   |------   -|
|------0---- 0-|----0-3 0|-----0  01|
|02-02  --0-2-|02-02-- 2 |02-02--0- |
|-------0----|----- -2   |------2   |
|-------------|------   -|-----3   -|
|------3------|-----0-   |-----  - -|

|------|0--0--- |0--0-2  -|
|3-1---|--3- 3--|--1--3  -|
|------|-2-- 2--|-0---2  -|
|-2----|0--- 0--|------  -|
|0-----|------- |3-----  -|
|------|------- |------  -|
end_of_tab


 

[G]共你有過最美的[Em]邂逅   [C]共你有過一些風雨憂[D] 愁
[G]共你醉過痛過的[Em]最後   [C]但我發覺想你不能沒[G] 有
[G]在你每次抱怨的[Em]眼眸   [C]像我永遠不懂給你溫[D] 柔
[G]別再訴說我倆早已[Em]分手  [C]像你教我傷心依然未[G] 夠
但你沒帶[Em] 走     夢裏的[Cmaj7] 所有
讓你[Am7]走     爲何[C]讓你看 不[D]透


但求[G]你未淡忘往日舊情我願默然帶着淚流
[Em]很想一生跟你走
就算[C]天邊海角多少改變一生只有風中追究
[D]不想孤單地逗留
但求[G]你未淡忘往日舊情我願默然帶着淚流
[Em]很想一生跟你走
在我[C]心中的你思海的你  [D]今生不可不能沒[G] 有
start_of_tab
|-------------|-------   |------   -|
|------0---- 0-|----0-3 0|-----0  01|
|02-02  --0-2-|02-02-- 2 |02-02--0- |
|-------0----|----- -2   |------2   |
|-------------|------   -|-----3   -|
|------3------|-----0-   |-----  - -|

|------|0--0--- |
|3-1---|--3- 3--|
|------|-2-- 2--|
|-2----|0--- 0--|
|0-----|------- |
|------|------- |
end_of_tab

主歌

[G]在你每次抱怨的[Em]眼眸   [C]像我永遠不懂給你溫[D] 柔
[G]別再訴說我倆早已[Em]分手  [C]像你教我傷心依然未[G] 夠
但你沒帶[Em] 走     夢裏的[Cmaj7] 所有
讓你[Am7]走     爲何[C]讓你看 不[D]透

但求[G]你未淡忘往日舊情我願默然帶着淚流
[Em]很想一生跟你走
就算[C]天邊海角多少改變一生只有風中追究
[D]不想孤單地逗留
但求[G]你未淡忘往日舊情我願默然帶着淚流
[Em]很想一生跟你走
在我[C]心中的你思海的你  [D]今生不可不能沒[G] 有
start_of_tab
|-------------|-------   |------   -|
|------0---- 0-|----0-3 0|-----0  01|
|02-02  --0-2-|02-02-- 2 |02-02--0- |
|-------0----|----- -2   |------2   |
|-------------|------   -|-----3   -|
|------3------|-----0-   |-----  - -|

|------|0--0--- |0--0-2  -|
|3-1---|--3- 3--|--1--3  -|
|------|-2-- 2--|-0---2  -|
|-2----|0--- 0--|------  -|
|0-----|------- |3-----  -|
|------|------- |------  -|

end_of_tab

      

添加到谱单
X

添加到谱单

《 只想一生跟你走 -- 蔡哈哈 》加入
◎ 选择已有谱单 创建新的

公开 (默认不公开,欢迎创建有意思的"公开谱单")

创建取消

推荐语(选填)

X

请先登录chord4


忘记密码

我来回应