歌手头像-好妹妹樂隊

那年的願望

1 2 3 4 5
x

音乐人: 好妹妹樂隊

供谱者:crony
那年的願望
歌手:好妹妹、王小熊貓
start_of_tab
|---0-2-3---|-3-2-3-2---|
|-3-------1-|---------0-|
|-----------|-----------|
|-----------|-----------|

|-------0-----|---------|
|-0-1-3-------|-----1-0-|
|---------2-0-|-0-2----|
|-------------|--|

|---0-2-3---|-3-5-3-2-----0-|
|-3-------1-|---------0-3---|
|-----------|---------------|
|-----------|---------------|

|-0-2-3-2-0-|-----0------|
|-----------|-3-1---3----|
|-----------|---------2--|
|-----------|------------|
end_of_tab


如今的[C]我總是感到[Dm]迷惑
像陣[G]風 不知明天的[C]方向
有時失[Em7]落 偶爾沉[Am7]默 孤單
現實的[Dm7]重量  踏在[G7]微弱的肩[C]上
誰在追[Dm7]趕 誰在旁[G7]觀
誰在尋[Dm7]覓的路上[G7]轉了幾個[C]彎
誰在沮[F]喪 誰在悲[G7]觀
你可記得 [Dm7]當時我們都是[G7]那麼的勇[C]敢
那年的[Dm7]願望[G7]  當初的[C]夢想
實現了[Dm7]多少 還有[G7]多少埋葬在[C]路上[C7]
美麗的[F]願望 [G]      偶然的[Em]一點感[Am]傷
是否[Dm7]越是遺憾 [F]就越難[G7]忘
誰在追[Dm7]趕 誰在旁[G7]觀
誰在尋[Dm7]覓的路上[G7]轉了幾個[C]彎
誰在沮[F]喪 誰在悲[G7]觀
你可記得 [Dm7]當時我們都是[G7]那麼的勇[C]敢
那年的[Dm7]願望 [G7]當初的[C]夢想
實現了[Dm7]多少 還有[G7]多少埋葬在[C]路上[C7]
美麗的[F]願望[G]   偶然的[Em]一點感[Am]傷
是否[Dm7]越是遺憾 [F]就越難[G7]忘
那年的[Dm7]願望 [G] 單純的[C]夢想
記憶中的[Dm7]陽光 還有[G]星空底下的[C]仰望[C7]
美麗的[F]願望 [G] 遙遠的[Em]一點光[A7]亮
那是[Dm7]緊握着的[F]一點堅[G7]強
也[C]許 我們都是[Dm]一樣
像支[G]帆不見未來的[C]彼岸
有時脆[Em7]弱 偶爾撐[Am7]着一般
明天的太[Dm7]陽 照[G7]着 倔強的平[C]凡
種下的[Dm7]太陽 總[G7]會 如夢般[C]絢爛

      

添加到譜單
X

添加到譜單

《 那年的願望 -- 好妹妹樂隊 》加入
◎ 選擇已有譜單 創建新的

公開 (默認不公開,歡迎創建有意思的"公開譜單")

創建取消

推薦語(選填)

X

請先登錄chord4


忘記密碼

我来回应