歌手头像-大張偉

什麼都不必說

1 2 3 4 5
x

音樂人: 大張偉

供譜者: crony   |  +3532   |  貢獻: 216170
什麼都不必說
歌手:大張偉
編配者:無的土豆
選調: 1=C  
start_of_tab
|-3-----5-3-----2-0-0-0-7-5-|
|--3-0-3---3-0-3-----1------|
|-------------|
|-------------|
end_of_tab
start_of_tab
|-7-7-5-5-3-3-|-7-7-5-5-3-7-|-7-7-7-7-8-8-|-7-7-7-7-8-5-|
|---------------------------|
|-------------|
|-------------|
end_of_tab
start_of_tab
|-7-7-5-5-3-3-|-7-7-5-5-3-7-|-7-7-7-7-8-8-|-7-7-7-7-8-5-|
|---------------------------|
|-------------|
|-------------|
end_of_tab
start_of_tab
|-7-7-5-5-3-3-|-3-2-3-|
|-------------|
|-------------|
|-------------|
end_of_tab
start_of_tab
|-7-7-5-3-2-3-|-3-0-3-5-7-5-|-7-7-5-3-2-3-|-8-8-8-7-3-5-|
|---------------------------|
|-------------|
|-------------|
end_of_tab

      

添加到譜單
X

添加到譜單

《 什麼都不必說 -- 大張偉 》加入
◎ 選擇已有譜單 創建新的

公開 (默認不公開,歡迎創建有意思的"公開譜單")

創建取消

推薦語(選填)

X

請先登錄chord4


忘記密碼

我来回应