歌手头像-兒歌童謠

倫敦橋要倒塌了

1 2 3 4 5
x

音乐人: 兒歌童謠

供谱者:crony
倫敦橋要倒塌了
歌手:選自《鵝媽媽童謠》
編配者:許龍飛
--------------------------------------
原調: 1=C  選調: 1=C  

start_of_tab
|----0------|--------0--|--------0--|--------0--|
|--3---3-1--|--0-1-3-0--|----0-1-0--|--0-1-3-0--|
|-----------|--------0--|--2-----0--|--------0--|
|-----------|--------0--|--------0--|--------0--|

|----0------|--------0--|----0---0--|--------0--|
|--3---3-1--|--0-1-3-0--|----0-3-0--|--0-----0--|
|-----------|--------0--|--2-0---0--|----2-0-0--|
|-----------|--------0--|----0---0--|--------0--|
end_of_tab


[C]倫敦[C]橋要[C]倒塌[C]了,[G7]倒塌[G7]了,[C]倒塌[C]了;
[C]倫敦[C]橋要[C]倒塌[C]了,[G7]我   [G7]的,[C]朋友[C] ;
start_of_chorus
[C]London [C]bridge is [C]falling [C]down,
[G7]falling [G7]down, [C]falling [C]down.
[C]London [C]bridge is [C]falling [C]down,
[G7]my    [G7]fair    [C]lady[C] .

[C]Build it [C]up with [C]iron [C]bars,
[G7]iron [G7]bars, [C]iron [C]bars.
[C]Build it [C]up with [C]iron [C]bars,
[G7]my    [G7]fair    [C]lady[C] .
[C]Iron [C]bars will [C]bend and [C]break ,
[G7]bend and [G7]break, [C]bend and [C]break.
[C]Iron [C]bars will [C]bend and [C]break ,
[G7]my    [G7]fair    [C]lady[C] .

end_of_chorus

      

添加到譜單
X

添加到譜單

《 倫敦橋要倒塌了 -- 兒歌童謠 》加入
◎ 選擇已有譜單 創建新的

公開 (默認不公開,歡迎創建有意思的"公開譜單")

創建取消

推薦語(選填)

X

請先登錄chord4


忘記密碼

我来回应