歌手头像-黑豹

爲所有愛我們的人

1 2 3 4 5
x

音乐人: 黑豹

供谱者:crony
編配者:Robbie
--------------------------------------
原調: 1=C  選調: 1=C  速度70  

前奏/間奏
start_of_tab
@  C9
|---|---3----------------|
|---|------3-------------|
|---|-0-----0--------0---|
|0~2|--2-------2-0~2-----|
|---|3----3---3-------0~2|
|---|--------------------|
%=== ==== =-= ====== -===  @GCsus4
|---3----------------|---1--------1------|
|------3-----3-------|------1------------|
|-0-----0--0---2~0-0-|-0-----0--0--------|
|--0--------0-----2--|3----3---3----3-2-0|
|-----2--------------|--3--------3-------|
|3--------3----------|-------------------|
%==== =-= ==== =====  ==== =-= ==== ===--

@ C9   G
|---3--3~3--|
|----3-3~3--|
|-0----0~0--|
|------0~0--|
|3------~---|
|------3~3--|
%-- --  end_of_tab

主歌 A1  (only AC)
[C9]天靜靜無[G]邊  可我仍被 
[Fsus2]包裹[Fm]在擁擁擠擠遊蕩的人羣中
[C9]間只能看[G]到   不屬於我  [Fsus2]的一切[C9]  5
主歌 A2  (Drums Bass EG PN 進)
[C9]請  還給我[G]吧  曾經  [Fsus2]那看一[Fm]切都是充滿着美麗陽光的感
[C9]覺白天  [G]很長 黑   夜很
[Fsus2]短的時光[C9] 
主歌 B  [C]每天都在擺脫孤單   酒愁[Dm]交錯可真心難換  這[Fsus2]友情總會使我感到[G]有時已經成負擔
那份[Fsus2]真心讓他[D]慢慢躲進歲月裏  剩[Fsus2]下的只是對萬事冷漠的勇[G]氣F  G
副歌  [C]多麼  無奈的人  [F]間  [C]多少  無奈在 裏 [F]面  可[C]我們  還要過好[Fsus2]一天一天[Fm]
爲所[C]有 愛[G]   我們的人[Fsus2]

Solo 同副歌和聲
[C][F][C]  [F]  
[C][Fsus2]  [Fm]  [C] [G]  [Fsus2]
主歌 B  [C]每天都在擺脫孤單   酒愁[Dm]交錯可真心難換  這[Fsus2]友情總會使我感到[G]有時已經成負擔
那份[Fsus2]真心讓他[D]慢慢躲進歲月裏  剩[Fsus2]下的只是對萬事冷漠的勇[G]氣F  G
副歌  [C]多麼  無奈的人  [F]間  [C]多少  無奈在 裏 [F]面  可[C]我們  還要過好[Fsus2]一天一天[Fm]
爲所[C]有 愛[G]   我們的人[Fsus2]
副歌  [C]多麼  無奈的人  [F]間  [C]多少  無奈在 裏 [F]面  可[C]我們  還要過好[Fsus2]一天一天[Fm]
爲所[C]有 愛[G]   我們的人[Fsus2]
Outro  (only AC)
[C9]天靜靜無[G]邊  可我們還在
[Fsus2]還在下面[C9]爲所有愛我們的人


添加到谱单
X

添加到谱单

《 爲所有愛我們的人 -- 黑豹 》加入
◎ 选择已有谱单 创建新的

公开 (默认不公开,欢迎创建有意思的"公开谱单")

创建取消

推荐语(选填)

X

请先登录chord4


忘记密码

我来回应