歌手头像-李娜

誰說也不信他 《80影視經典傳唱》

1 2 3 4 5
x

音乐人: 李娜

供谱者:crony
編配者: 電腦科技
--------------------------------------
原調: 1=A  選調: 1=A  Capo=3


前奏
start_of_tab
@|5-3-0-3-5-|0-5-3----0|------0-3-0---|-------|
|----------|-----1-3--|-1-1-3-----3-1|-------|
|----------|----0-----|2-2-----------|-------|
|----------|----------|--------------|-------|
|0-------0-|--0-------|--------------|-------|
|----------|---------0|--------------|-------|
%-- -- -- -

@Am
|------------|----x------|----------|-----------|
|0-0---------|--x---x----|----------|-----------|
|----2-0-0-2-|-x-x-x-x---|----------|-----------|
|-------2----|-----------|----------|-----------|
|----------0-|x----------|----------|-----------|
|------------|-----------|----------|-----------|
%
end_of_tab

主歌 A
[Am]誰說也不信他  [Am]誰說也不信[Em]他
[Am]只要我今生[Dm]認定了他 
[C]走遍天涯[G]去尋[Am]他
[Am]風狂也不管它  [Am]雨驟也不管[Em]它
[Am]心中真情[Dm]不凋零 
[C]生死離別還[G]相牽[Am]掛
[F]誰攔也不管他   [F]誰擋也不管[Em]他
[Dm]流水絕無回頭[Am]悔
[Dm]生死相依跟着[Am]他
跟着[G]他[G] 跟着[Am]他


添加到谱单
X

添加到谱单

《 誰說也不信他 《80影視經典傳唱》 -- 李娜 》加入
◎ 选择已有谱单 创建新的

公开 (默认不公开,欢迎创建有意思的"公开谱单")

创建取消

推荐语(选填)

X

请先登录chord4


忘记密码

我来回应