歌手头像-蘇聯軍歌

草原騎兵曲(Полюшко

1 2 3 4 5
x

音乐人: 蘇聯軍歌

供谱者:crony
編配者:澤木朱裏
--------------------------------------
原調: 1=D  選調: 1=C  Capo=2


根據千住明改編版本(ポーリュシカ・ポ-レ(マンドリン・ヴァージョン))扒的譜

前奏 / 間奏 
start_of_tab  |-3-0-3-2----3-2-0-0-7-2-0-----------2---0-0-----------2-|
|---------3-0-----3-----0-3-1-0-0-1-0-4-0---3-1-0-0-1-0--|
|------------------------------2-----------------2-------|
|--------------------------------------------------------|

|-3-0-3-2----3-2-0-0-7-2-0-----------2---0-0-----------2-|
|---------3-0-----3-----0-3-1-0-0-1-0-4-0---3-1-0-0-1-0--|
|------------------------------2-----------------2-------|
|--------------------------------------------------------|

|--7-3-5-7-3-5-7-0-2-3-5-7-8-10-8-7-----------------|
|---------------------------------------------------|
|---------------------------------------------------|
|---------------------------------------------------|

|--6-3-6-5-1-6-5-3-1-3-10-5-3-1-----------5-2----|
|-----------3--------------3---4-3-1-3-4-3---3---|
|------------------------------------------------|
|------------------------------------------------|

|-3-3-1-----------5----|
|------4-3-1-3-4-3-----|
|----------------------|
|----------------------|


|--6-3-6-5-1-6-5-3-1-3-10-5-3-1-----------5-2----|
|-----------3--------------3---4-3-1-3-4-3---3---|
|------------------------------------------------|
|------------------------------------------------|

|-3-3-1-----------5----|
|------4-3-1-3-4-3-----|
|----------------------|
|----------------------|

|-10-6-8-10-6-8-10-3-5-6-8-10-11-10-8-10--|
|-----------------------------------------|
|-----------------------------------------|
|-----------------------------------------|

|-5-4-5-4-5-|
|-----------|
|-----------|
|-----------|  end_of_tab草原騎兵曲(Полюшко
添加到谱单
X

添加到谱单

《 草原騎兵曲(Полюшко -- 蘇聯軍歌 》加入
◎ 选择已有谱单 创建新的

公开 (默认不公开,欢迎创建有意思的"公开谱单")

创建取消

推荐语(选填)

X

请先登录chord4


忘记密码

我来回应