歌手头像-千住明

聖者的行進

1 2 3 4 5
x

音乐人: 千住明

供谱者:crony
編配者:澤木朱裏
--------------------------------------
原調: 1=D  選調: 1=C  Capo=2


前奏 / 間奏 
start_of_tab
|--0-1-3-0-1-3-0-1-3-0-0-0------------------------------|
|-1-----1-----1-------1-2-2-1-1-------------------------|
|-------------------------------------------------------|
|-------------------------------------------------------|


|------------------------------0-3-3-3-1-5-5-3-0-1------|
|-------------------------------------------------2-1---|
|-------------------------------------------------------|
|-------------------------------------------------------|

end_of_tab聖者的行進

添加到谱单
X

添加到谱单

《 聖者的行進 -- 千住明 》加入
◎ 选择已有谱单 创建新的

公开 (默认不公开,欢迎创建有意思的"公开谱单")

创建取消

推荐语(选填)

X

请先登录chord4


忘记密码

我来回应