歌手头像-吳蓓雅(PiA)

小事

1 2 3 4 5
x

音乐人: 吳蓓雅(PiA)

供谱者:reecho
作詞:吳蓓雅
作曲:吳蓓雅
編曲:吳蓓雅
貝斯:陸家駿
Tambourine:拾壹葉
鼓編曲:林宥廷
木吉他:鄭劭華、吳蓓雅
口風琴:江鬆霖
和聲&編寫:江鬆霖、吳蓓雅
編配者:charlie1kimo(ptt.cc)
-----------------------------------------------------
KEY=B   PLAY=A   CAPO=2

簡單版:
Aadd9 = Asus2 (x02200)
Amaj7add9 = Amaj7 (x021200)
D6 = Dsus2 = (xx0230)
E = E = (022100)
B7 = (x21202)
B = (x24442)

CD版:
Aadd9
--5--------------5--------
-----------2-----------2--
--------4-----------4-----
--------------------------
--0-----------------------
--------------------------

Amaj7add9
--4--------------4--------
-----------2-----------2--
--------4-----------4-----
--------------------------
--0-----------------------
--------------------------

D6
--2--------------2--------
-----------0-----------0--
--------2-----------2-----
--0-----------------------
--------------------------
--------------------------

D6            E
-----2-----------0--------
--------0-----------0-----
-----------2-----------1--
--0-----------------------
--------------------------
--------------0-----------

B7
--2--------------2--------
-----------0-----------0--
--------2-----------2-----
--------------------------
--2-----------2-----------
--------------------------

E
--0--------------0--------
-----------0-----------0--
--------1-----------1-----
--------------------------
--------------------------
--0-----------0-----------

D6*           E*
--2--------2-----------2--
--------0-----------0-----
-----2-----------2--------
--0-----------------------
--------------------------
--------------0-----------

Asus2         Asus2
--5--------5--7-----------
--------5-----------------
-----4--------------------
--------------------------
--0-----------0-----------
--------------------------

副歌2頭一段:
A6
--9--------------9--------
-----------7-----------7--
--------6-----------6-----
--------------------------
--0-----------0-----------
--------------------------

Asus2*
--7--------------7--------
-----------5-----------5--
--------4-----------4-----
--------------------------
--0-----------0-----------
--------------------------

D
--5--------------5--------
-----------7-----------7--
--------7-----------7-----
--0-----------0-----------
--------------------------
--------------------------

D            E
-----5-----------7--------
-----------7-----------9--
--------7-----------9-----
--0-----------------------
--------------------------
--------------0-----------


前奏:Aadd9    Amaj7add9      D6     D6 E    *4

主歌:
Aadd9   Amaj7add9      D6     D6 E
也不是真的花很多時間 想那些往事
Aadd9   Amaj7add9      D6     D6 E
聊起了過去也格外懷念 住過的房子
Aadd9   Amaj7add9      D6     D6 E
小小的步伐拉起長長晃晃的影子
B7     B7     D6     D6 E
想著未來會是什麼樣子 我還沒準備好

主歌2:(和絃同上...﹚
很多緣分總在一念之間埋下種子
穿梭在生活與忙碌之間 人們充滿故事
熟悉零散而溫暖的種種過程都是小事
累積成了一輩子 就這麼一次

副歌1:
Aadd9   Amaj7add9      D6     D6 E
woo... 我們學會寫字
Aadd9   Amaj7add9      D6     D6 E
woo... 決定爲愛而堅持
Aadd9   Amaj7add9      D6     B7
woo... 最珍貴的一輩子
D6            E
什麼會是你最想寫下的故事

間奏1:Aadd9   Amaj7add9      D6     D6 E    *2

主歌2+副歌

間奏2:
D6     D6     Aadd9   Aadd9
D6     D6     Aadd9   Aadd9
D6     E      B7     B
D6* E*  Asus2 Asus2

副歌2:
A6     Asus2*  D      D E
woo... 我們學會寫字
Aadd9   Amaj7add9      D6     D6 E
woo... 決定爲愛而堅持
Aadd9   Amaj7add9      D6     B7
woo... 最珍貴的一輩子
D6            E
什麼會是你最想寫下的故事

尾奏:就前奏...
		
添加到谱单
X

添加到谱单

《 小事 -- 吳蓓雅(PiA) 》加入
◎ 选择已有谱单 创建新的

公开 (默认不公开,欢迎创建有意思的"公开谱单")

创建取消

推荐语(选填)

X

请先登录chord4


忘记密码

我来回应