歌手头像-陳奕迅

與我常在

1 2 3 4 5
x

音乐人: 陳奕迅

供谱者:reecho
作詞:林夕    
作曲:林健華 of Black Box
編曲:Lorn Leber 
監製:Jim Lee
編配者:tommyhyt
-------------------------------------------------------------------
Key=C#m

[Intro]
 
E      |E      |E      |E       |
 
[Verse 1]
 
C#m    G#m     |C#m    G#m      |
( )在一(起)看每齣(戲) 在一(起)嘆
     A     E     |A        B     |
每口(氣) 再(細)嘗同(偕)到老的(況)味
 
C#m    G#m     |C#m    G#m      |
( )每分(鐘)也抱緊(你) 沒有(一)秒共你
 A       E       |A    B     |
(別)離 還(攜)手看著(生)與(死)
 
[Pre chorus]
 
G#m          |C#m     G#m      |A    B   |
( )坐著臥著都分(享)  日日(夜)夜也為(彼)此(設)想
G#m          |C#m     G#m      |A    B   |
( )站著望著都分(享)  就在(夢)內發掘(這)真(相)
 
[Chrous]
 
 E     G#m |C#m     G#m    |
( )除非(你)是(我) 纔可(與)我
   A     E       |A        B        |
常(在) 一(個)人  從(鏡)內發展(恩)愛
 
 E     G#m |C#m      G#m    |
( )除非(你)是(我)  纔可(晝)夜
   A     E      |A        B     |E   |
同(在) 戀(不)來 從(厭)倦裡面(偷)取恨(愛)
 
[Bridge]
E     |
 
[Verse 2]
 
C#m    G#m     |C#m    G#m      |
( )在一(起)與你工(作) 在一(起)與你
   A       E   |A        B      |
摸(索) 兩個(人)同(時)佔有的(快)樂
 
C#m    G#m     |C#m    G#m      |
( )每分(鐘)與你揮(霍) 沒有(一)秒沒我
 A       E       |A        B    |
(在)旁 還(攜)手看著(天)空黑與(光)
 
[Pre chorus]
 
G#m          |C#m     G#m      |A    B   |
( )坐著臥著都分(享)  日日(夜)夜也為(彼)此(設)想
G#m          |C#m     G#m      |A    B   |
( )站著望著都分(享)  就在(夢)內發掘(這)真(相)
 
 
[[Chrous]
 
 E     G#m |C#m     G#m    |
( )除非(你)是(我) 纔可(與)我
   A     E       |A        B        |
常(在) 一(個)人  從(鏡)內發展(恩)愛
 
 E     G#m |C#m      G#m    |
( )除非(你)是(我)  纔可(晝)夜
   A     E      |A        B     |E   |
同(在) 戀(不)來 從(厭)倦裡面(偷)取恨(愛)
 
[solo]
                      |B                    |
e|--12b(14)r-----9-7-9----------------------|
B|---------------------7--------------------|
G|-----------------------6--9-11-9-11-9-11--|
D|------------------------------------------|
A|------------------------------------------|
E|------------------------------------------|
 
  C#m          G#m                    | A   |
e|----9-----------12-9------9---------9-------------------------|
B|-----12----12--------------12--------12--------------12b-12b--|
G|11b-----11b--11b----11-11b----11-11b----11br-9--11-9----------|
D|----------------------------------------------11--------------|
A|--------------------------------------------------------------|
E|--------------------------------------------------------------|
 
                          C#m         |
e|---12--14-12-14-12-14-12-16---------|
B|14---------------------------14-14--|
G|------------------------------------|
D|------------------------------------|
A|------------------------------------|
E|------------------------------------|
 
        A    E                |G#m                  C#m  |
e|------19b--19-17-16-17-19-17-16-14-16-17-16-14--12--12-|
B|----17--------------------------------------------14---|
G|--18---------------------------------------------------|
D|-------------------------------------------------------|
A|-------------------------------------------------------|
E|-------------------------------------------------------|
 
   A    E          |B                             |
e|-------------9----------------------------------|
B|-12b--12-9-9--12--------------------------------|
G|-----------------11br-9-------------------------|
D|------------------------11-9-11-9-11-9-11-9-11--|
A|------------------------------------------------|
E|------------------------------------------------|
 
 
[Chorus]
 
 E     G#m |C#m     G#m    |
( )除非(你)是(我) 纔可(與)我
 
     A     E     |A        B                  |
e|------------------------16-17-16-17-16------|
B|---------------------------------------17---|
G|-----------------------------------------16-|
D|--------------------------------------------|
A|--------------------------------------------|
E|--------------------------------------------|
  常(在) 一(個)人從(鏡)內發展(恩)愛
 
 E     G#m |C#m      G#m    |
( )除非(你)是(我)  纔可(晝)夜
 
     A     E       |A      B        |
e|-----------------------------------16-17-16-17-16-17-19-|
B|------------------------------17-19---------------------|
G|-------------------------16-18--------------------------|
D|--------------------------------------------------------|
A|--------------------------------------------------------|
E|--------------------------------------------------------|
  同(在) 戀(不)來 從(厭)倦裡面(偷)取
 
   E      G#m |C#m     G#m    |A      E
恨(愛) 除非(你)是(我) 纔可(與)我常(在)  一(個)人
 
    |A        B        |
e|---------------------|
B|-----------17-19-----|
G|-----------------16--|
D|---------------------|
A|---------------------|
E|---------------------|
  從(鏡)內發展(恩)愛
 
 E     G#m |C#m      G#m    |
( )除非(你)是(我)  纔可(晝)夜
 
     A     E       |A        B     |E        |
e|------------------19-19-17--16-16-12-------|
B|--------------------------------------12br-|
G|-------------------------------------------|
D|-------------------------------------------|
A|-------------------------------------------|
E|-------------------------------------------|
  同(在) 戀(不)來  從(厭)倦裡面(偷)取恨(愛)
 
[outro]
 
C#m    G#m     |C#m     G#m      |
( )在一(起)會有多(美)  在一(起)也會
   A       E       |A       B    |E
不(美)   一(個)人 同(偕)到老不(靠)運(氣)
 
E      |E      |E      |E       |
添加到谱单
X

添加到谱单

《 與我常在 -- 陳奕迅 》加入
◎ 选择已有谱单 创建新的

公开 (默认不公开,欢迎创建有意思的"公开谱单")

创建取消

推荐语(选填)

X

请先登录chord4


忘记密码

我来回应