歌手头像-黃明志

五百

1 2 3 4 5
x

音乐人: 黃明志

供谱者:postman
Five Hundred 五百 / Wu Bai 伍佰
曲:Namewee 黃明志
詞:Namewee 黃明志

編配者:Tang Siew Wai 鄧少偉
-----------------------------------------------------------

  
e|-10\-12-/-10-----------------------------|
B|-10\-12-/-10-----------------------------|
G|-------------11\12-/-10--8----(10h12-10)-|
D|-------------10\10-/-9-----9-------------|
A|-----------------------------------------|
E|-----------------------------------------|
 
 
e|-----------------------------------------|
B|--10\-12-/10--8------(8h10--8)-----------|
G|--9-\-11-/-9----9------------------------|
D|-----------------------------------------|
A|-----------------------------------------|
E|-----------------------------------------|
 
[Intro]
  Am   D    G
  Am   D    G
 
[Verse 1]
G
陽光下我逆着風 滿臉的塵埃
Am
追逐著巨大的夢 卻沒想過在口袋
C             G
我只有五百 就只有五百
 
[Verse 2]
G
那個年少輕狂的我騎着歐兜賣
Am
發現機車道上的人們都跑太快
C      D      G     D
我聽着伍佰 我哼著伍佰  Haa...
 
[Chorus]
G         D
少年啊 要忍耐
     Em      G
撐過熬過總算苦盡甘來
      Am       Em
當初的理想和願望還在胸懷
      Am       D
只是被無情的現實掩埋
G         D
青春啊 已不在
    Em        D
生命潮起潮落春去秋來
    Am         C
曾經我深愛的最愛的那女孩
     Am        D
她的笑容是否一樣可愛
     Am D      G   Em
從前的愛    不再回來
     Am D      G
花謝花開    珍惜現在
 
  Am   D    G
  Am   D    G
 
[Verse 3]
G
當時我沒有翅膀 沒有肩膀 沒能耐
Am
想送她一份生日驚喜我摸摸口袋
C                G
我只有五百 就只有五百
 
[Verse 4]
G
這城市一片荒蕪直到遇見她的愛
Am
霓虹燈閃閃爍爍就像我們的舞臺
C      D      G     D
我聽着伍佰 我哼著伍佰  Haa...
 
[Chorus]
G         D
少年啊 要忍耐
     Em      G
撐過熬過總算苦盡甘來
      Am       Em
當初的理想和願望還在胸懷
      Am       D
只是被無情的現實掩埋
G         D
青春啊 已不在
    Em        D
生命潮起潮落春去秋來
    Am         C
曾經我深愛的最愛的那女孩
     Am        D
她的笑容是否一樣可愛 Haa...
 
[Guitar Solo]
G   D   Em  G
Am  Em  Am  D
G   G   Em  D
Am  G   Am  D
 
[Chorus]
G         D
少年啊 要忍耐
     Em      G
撐過熬過總算苦盡甘來
      Am       Em
當初的理想和願望還在胸懷
      Am       D
只是被無情的現實掩埋
G         D
青春啊 已不在
    Em        D
生命潮起潮落春去秋來
    Am         C
曾經我深愛的最愛的那女孩
     Am        D
她的笑容是否一樣可愛
     Am D      G   Em
從前的愛    不再回來
     Am D      G
花謝花開    珍惜現在
 
[Outro]
            Am   D
HaAh HaAh HaAh Haa... 
            G
HaAh HaAh HaAh Haa... 
            Am   D
HaAh HaAh HaAh Haa... 
            G
HaAh HaAh HaAh Haa...
添加到谱单
X

添加到谱单

《 五百 -- 黃明志 》加入
◎ 选择已有谱单 创建新的

公开 (默认不公开,欢迎创建有意思的"公开谱单")

创建取消

推荐语(选填)

X

请先登录chord4


忘记密码

我来回应