歌手头像-周興哲

其實你並沒那麼孤單

1 2 3 4 5
x

音乐人: 周興哲

供谱者:reecho
Key=Bb   Play=G   Capo=3

[Intro]
                     Cadd9                                    
e|-----3--2--2--0--0-----------|------0----------------------|
B|--------------------3--3--0--|--0h3----3--3--0-------------|
G|--0--------------------------|------------------2--0-------|
D|-----------------------------|--------------------------0--|
A|-----------------------------|-----------------------------|
E|-----------------------------|-----------------------------|

  Em                                                        
e|-----------------------------|-----------------------0-----|
B|------------------0--0------3|--0--------------0--1/3---3--|
G|0-----0-----0--2-------------|-----0-----0--2--------------|
D|---2-----2---------------2---|--------2--------------------|
A|-----------------------------|-----------------------------|
E|-----------------------------|-----------------------------|

  Em                             Cadd9
e|-----------------------------|----------------------------|
B|-----------------0-----------|----------------------------|
G|--2--2--2--2--2-----0--0----0|---------0--0---------------|
D|-----------------------------|--0-2-------0---------------|
A|-----------------------------|----------------------------|
E|-----------------------------|----------------------------|
 
 
[Chorus 1]
     G
其實你並沒那麼孤單
Em           Cadd9
只需要逃離這狀態
    G
其實並沒那麼難放開
Em           Cadd9
只需要身邊人關懷
 
 
[Post-Chorus 1]
     Em
像一片雲朵在天空中
 Cadd9
一個人自己存活
  Em          G
最終還是會憑空消失
     Em
其實你並沒那麼孤單
G            Cadd9
只需要逃離這狀態
 
 
[Interlude]
                     Cadd9                                    
e|-----3--2--2--0--0-----------|------0----------------------|
B|--------------------3--3--0--|--0h3----3--3--0-------------|
G|--0--------------------------|------------------2--0-------|
D|-----------------------------|--------------------------0--|
A|--------------------2--------|------3----------------------|
E|-----------------------------|-----------------------------|

  Em
e|-----------------------------|-----3--2--2--3--0--2--------|
B|------------------0--0------3|-----------------------3--0--|
G|0-----0-----0--2-------------|--0--------------------------|
D|---2-----2---------------2---|-----------------------------|
A|-----------------------------|-----------------------2-----|
E|-----------------------------|-----------------------------|

e|-------0---------------------|-----------------------------|
B|--0h3-----3--0--3------------|----------------------3------|
G|-------------------2--2--0---|-----0-----0----------0------|
D|-----------------------------|0h2-----2---------2----------|
A|-------3---------------------|-----------------------------|
E|-----------------------------|-----------------------------|
 
 
[Chorus 2]
     G
其實我們面對面坦白
Em           Cadd9
怎麼會去互相傷害
    G
其實世界可以更光彩
Em           Cadd9
只需要大膽地去愛
 
 
[Post-Chorus 2]
     Em
在城市裏的人往人來
 Cadd9
用不說話的對白
  Em          G
描述著我們都還存在
     Em
其實你並沒那麼孤單
G            Cadd9
只需要逃離這狀態
 
 
[Bridge]
Em  G     Cadd9
OoooOooo  yeah
Cadd9  Em  Cadd9  G
OoOooooOooooOooo  yeah
 
 
[Chorus 3]
     G
其實天再黑總有太陽
Em           Cadd9
寂寞也是可以堅強
    G
其實我們都還有時間
Em           Cadd9
只需要勇敢地去愛
 
 
 
************************************
 
| h  Hammer-on
| /  Slide up
 
************************************
		
添加到譜單
X

添加到譜單

《 其實你並沒那麼孤單 -- 周興哲 》加入
◎ 選擇已有譜單 創建新的

公開 (默認不公開,歡迎創建有意思的"公開譜單")

創建取消

推薦語(選填)

X

請先登錄chord4


忘記密碼

我来回应