歌手头像-周興哲

相信愛

1 2 3 4 5
x

音乐人: 周興哲

供谱者:reecho
Key=E   Play=C   Capo=4

[Intro]
    C               E             Am7      Am7/G         F             G
e|------0--------0--1--0--3----|-----------------------3/5--|------5--3--1--0---|
B|---------------------------0-|--1--------1--------1-------|---------0--------3|
G|--0h2-------0----------------|--------0-------------------|---2-----0---------|
D|---------2-------------------|-----2-----------2----------|3------------------|
A|------3----------------------|--0-----------3-------------|-------------------|
E|------------------0----------|----------------------------|---------3---------|
   C          Gsus4   G     C            E           Am7       Am7/G
e|--0-----------------------0---|-----0--1--0----------------|---------------0--|
B|--------1-----1-----0---------|--------------3--0--1h3----1|-----------1h3----|
G|--------------0-----0---------|--0-------------------------|------------------|
D|-----2-----2-----0-----0-----2|------------------------2---|--2-----2---------|
A|--3-----------------------3---|--------------------0-------|------------------|
E|--------------3---------------|--------0-------------------|-----3------------|
    F           G         Csus4          C
e|------------------------------|------------------------------|
B|------------------------------|--1-----1---------------------|
G|--2--------2--0---------------|--------0---------------------|
D|--------3--------3--2--0-----3|-----3------------------------|
A|-----3--------------------3---|--------3---------------------|
E|--1-----------3---------------|------------------------------|
 
 
 
[Verse 1]
C   E      Am7 Am7/G
誰 有幸福的答案
 F    G      C  Gsus4
難以 被捉摸的雲彩
C   E       Am7 Am7/G
若 這旅程能先 彩排
     F   G   C
有些眼淚 就能明白
 
 
[Pre-Chorus 1]
  F   G     Em
前往 明天的站牌
Am7   F      G    C  C7
會有人來 就有人轉身離開
  F   G    Em
再見 努力好好說完
  Am7  Dm7      Gsus4 G
我帶著笑容 行李是遺憾
 
 
[Chorus]
        F     G     Em
我不知道 還要多少時間等待
Am7     F     G     C C7
等待有人 會從盡頭朝我走來
        F     G     Am7
我只知道 這陣雨是為彩虹而來
     Dm7     G
滿懷期待 走向未來
        C
Oh 我相信愛
 
 
[Interlude]
    C          Cmaj7         Fsus2
e|--------------------------|--------------------------|
B|--1----1----1-0----0---0--|--------------------------|
G|--------------------------|--0-----0------0----------|
D|-----2----2------2---2----|-----3------3-------------|
A|--3-----------3-----------|--------------------------|
E|--------------------------|--1---------------1-------|
 
   Am7            G                  Fsus2
e|---------------------------------|---------------------------------|
B|--1----1----1---0-----0-----0----|---------------------------------|
G|-------0-------------------------|--0----0-----0-------------------|
D|-----2----2--------2------2------|-----3-----3---------------------|
A|--0------------------------------|---------------------------------|
E|----------------3----------------|--1------------------------------|
 
 
[Verse 2]
C   E      Am7 Am7/G
誰 能不遇見意外
 F    G      C  Gsus4
錯過 意外是否精彩
C   E       Am7 Am7/G
若 不曾被狠狠 傷害
     F   G   C
誰好誰壞 誰會明白
 
 
[Pre-Chorus 2]
  F   G     Em
前往 明天的站牌
Am7   F      G    C  C7
有時熱鬧 有時候只能孤單
  F   G    Em
有時 累得想停下來
  Am7  Dm7      Gsus4 G
忍不住緬懷 我們多勇敢
 
 
[Chorus]
        F     G     Em
我不知道 還要多少時間等待
Am7     F     G     C C7
等待有人 會從盡頭朝我走來
        F     G     Am7
我只知道 這陣雨是為彩虹而來
     Dm7     G
滿懷期待 走向未來
        C
Oh 我相信愛
 
 
[Interlude 2]
C Dm7 C F x2
Am7 Em F
Am7 Em  Dm7 G
 
[Final Chorus]
        F     G     Em
早該知道 錯過以後 無法重來
Am7     F     G     C C7
答案需要 一層一層 慢慢剝開
        F     G     Am7
我只知道 你完整了我們的存在
     Dm7     G
滿懷期待 走向未來
          C
你讓 我相信愛
 
 
[Outro]
    C           E             Am7      Am7/G         F             G
e|--0--------0--1--0--------|-----------------------3/5|--------5--3--1---------|
B|--------------------3--0--|--1--------1--------1-----|-----------0-----3/5-3--|
G|--------0-----------------|--------0-----------------|-----2-----0------------|
D|-----2--------------------|-----2-----------2--------|--3---------------------|
A|--3-----------------------|--0-----------------------|------------------------|
E|--------------0-----------|--------------3-----------|-----------3------------|
    C
e|--------------------------|
B|--1-----------------------|
G|--0-----------------------|
D|--2-----------------------|
A|--3-----------------------|
E|--------------------------|
 
 
 
 
 
 
************************************
| h   Hammer-on
| /   Slide up
| \   Slide down
************************************
		
添加到譜單
X

添加到譜單

《 相信愛 -- 周興哲 》加入
◎ 選擇已有譜單 創建新的

公開 (默認不公開,歡迎創建有意思的"公開譜單")

創建取消

推薦語(選填)

X

請先登錄chord4


忘記密碼

我来回应