歌手头像-Lolly Talk

二人限定故事

1 2 3 4 5
x

音樂人: Lolly Talk

供譜者: reecho   |  +9978   |  貢獻: 1101779
二人限定故事
Lolly Talk
曲:N/A
詞:Sinnie, Tania
編配者:hihi(guitarians.com)
---------------------------------------------------
Key=F


intro
| F                              | F#m7
|--------------------------------|------------------------------|
|---------------10_--------------|-------------10---------------|
|--------10--------10-----10-----|--------9---------9-------9---|
|----10----------------10--------|-----7----------------7-------|
|-8---------8 -------------------|-9---------9------------------|
|--------------------------------|------------------------------|

| Gm7                            | Gm7b5
|--------------------------------|---------------------------|
|-----------------11-------------|---------------------------|
|---------10-----------10-----10-|----------10-------15------|
|-----12--------------------12---|------11------11-----------|
|-10----------10-----------------|-10------------------------|
|--------------------------------|---------------------------|

Verse:
| F          C/E     | Dm       C
| (Day) by day靠(在)窗邊 託(腮)的過一(天)
| Bb            Am  | Gm       C  
Is (love) sweet as (lolly), may I (taste) it ba(be)

| F          C/E     | Dm       C
網(上)播著你(I)G reels 也(像)企你側(邊)
| Bb            Am  | Gm       C
耳機(反)覆播著(你)聲線()

Pre-Chorus:
| Am
(拉)近距離 白日夢中找你
| Dm
(Would) you take my breath away
| Gm          C
(想)你注視 像一(起)
 
Chorus:
          | F        C/E
If I could just (day)dream (新)的一天
| Dm       C
偶遇(見)會令我更掛(牽)
| Bb            Am  | Gm       C
如當(天)著你(白)襯衣 長(裙)極Kawai(i)

| F        C/E
(Ice) cream 甜(蜜)的一天
| Dm       C | Bb             |
紅(脣)紅一(點) 羞澀落於(我)嘴邊
| Gm       C
誰(可)給他發(現)

Verse:
| F                | Dm
(那)夜快遞靠在窗邊 向(星)星說一遍
| Bb              | Gm 
祈求(明)日會相見 在地下(鐵)相依

| F               
若(要)讓我改變嗎
| Dm        
Missing (you) round and round
| Bb            Gm  |
最終(只)愛著你的(真)

Pre-Chorus:
| Am
(想)蹺手臂 在睡夢中找你
| Dm
(Take) me to the milky way
| Gm          C
(得)你注視 像一(起)

Chorus:
          | F        C/E
If I could just (day)dream (新)的一天
| Dm       C
偶遇(見)會令我更掛(牽)
| Bb            Am  | Gm       C
如當(天)著你(白)襯衣 長(裙)極Kawai(i)

| F        C/E
(Ice) cream 甜(蜜)的一天
| Dm       C | Bb            Am  |
紅(脣)紅一(點) 羞澀落於(我)嘴(邊)
| Gm    C    |F
誰(可)給(他)發(現)

Bridge:
| F        C/E
()每一天皆有(預)感嗎
| Dm    
Every(thing) is still in dark
| C
My (head’s) been in the cloud
| Bb          Am   
()我也想衝口去(tell) you now
| Gm  
其實(我)期望過
| C
Would you be mine (some)how

Chorus:
      | F        C/E
讓我怎(開)始 明(亮)的一天
| Dm       C
這樣我(會)令你更掛(牽)
| Bb          Am     | Gm    
如當(天)你著白(襯)衣 長裙(迎)合一天
C
Shall we ?
| F        C/E
(Ice) cream 甜(蜜)的一天
| Dm       C       | Bb   Am     |
(紅)脣紅一點() 羞澀落於(我)嘴(邊)
 | Gm    
難道(他)終於....
| F          C/E      | Dm       C
(Day)dream a (little) things
| F          C/E      | Dm       C
(Day)dream a (little) things
| F          C/E     
(Day)dream a (little) things
| Dm       C        | Bb   Am     |
How (we) would改(變) 羞澀落於(我)嘴(邊)
|Gm      C     |F
大概(他)終(於)發(現)
添加到譜單
X

添加到譜單

《 二人限定故事 -- Lolly Talk 》加入
◎ 選擇已有譜單 創建新的

公開 (默認不公開,歡迎創建有意思的"公開譜單")

創建取消

推薦語(選填)

X

請先登錄chord4


忘記密碼

我来回应