歌手头像-花兒樂隊

1 2 3 4 5
x

音樂人: 花兒樂隊

供譜者: KingOYoung   |  +5   |  貢獻: 9
(前奏)
    A         D       A         D
|--------|--------|--------|-----0--|
|---2 ---|---3 2-2|---2 0--|---3 -3-|
|--2--2--|--2---4-|--2---21|--2----2|
|2 ----2-|0 ------|2 ------|4 ------|  x 2 
|0------4|--------|0-------|5-------|
|--------|--------|--------|--------|

    A         D       Bm         E
|--------|-----0--|0 ------|x-xx-xx-|
|---2 ---|---3 -3 |--3 232 |x-xx-xx-|
|--2--2--|--2-----|--------|x-xx-xx-|
|2 ----2-|0 ------|--------|x-------|
|0------4|--------|2-------|x-------|
|--------|--------|--------|x-------|


 A          D         A
(這)些天 在(輕)鬆的世(界)
   D         A
她(來)到我的(身)邊
   D         Bm   E
陽(光)永遠溫(暖) (空)氣新鮮
 A          D         A      D        A
(這)感覺 像(蜜)糖在嘴(邊) 流(入)了我的(身)體
   D         Bm   E
陶(醉)地體會(著) (特)別香甜

* 
Bm              D            A
()在分開的時候 ()想念就會很強(烈)
     D        Bm      E     
她走(進)我心田 ()新的(情)感出現
A        D         Bm          E
()想不了(別)的什麼 (只)盼著再見(面)
A      D        Bm      E         G             E
()我閉(上)了雙眼 ()準備(睡)去 然後(夢)到幸福的一(切) 啦啦啦咿呀 #

(間奏)
    A         D       A         D
|--------|-----0--|--------|2-20 2--|
|2 -2 32-|3--3 -3-|2--2 32-|3-----3-|
|2 ------|2-2-----|2 ------|2-------|
|2 ------|0 ------|2 ------|0 ------|  x 2 
|0-------|--------|0-------|--------|
|--------|--------|--------|--------|

    A         D       Bm         E
|--------|-----0--|2 2 2020|xx---xx |
|2 -2 32-|3--3 -3-|3 ------|xx---xx |
|2 ------|2-2-----|4 ------|xx---xx |
|2 ------|0 ------|4 ------|x-------|  *
|0-------|--------|2 ------|x-------|
|--------|--------|--------|x-------|    

#
(尾奏與前奏雷同以A結尾)
添加到譜單
X

添加到譜單

《 糖 -- 花兒樂隊 》加入
◎ 選擇已有譜單 創建新的

公開 (默認不公開,歡迎創建有意思的"公開譜單")

創建取消

推薦語(選填)

X

請先登錄chord4


忘記密碼

我来回应