歌手头像-齊秦

花祭

1 2 3 4 5
x

音乐人: 齊秦

供谱者:finshman

前奏:
e|------------------|------------------|------------------|----------------|--------------------|
b|------------------|------------------|------------------|----------------|-0-3----------------|
g|--------------2-4-|--------------0-2-|-4------------2-4-|------------0-2-|----------------2-4-|
d|------------------|-2----------------|------------------|-2--------------|--------------------|
a|------------------|------------------|------------------|----------------|--------------------|
E|------------------|------------------|------------------|----------------|--------------------|

e|------------------|------------------|------------------------|----------------0--0--3--|
b|------------------|------------------|------------------------|----0--0--3--3-----------|
g|--------------0-2-|----------2-------|----------------0--0--2-|-2-----------------------|
d|-2----------------|-0----------------|----0--0--2--2----------|-------------------------|
a|------------------|------------------|-2----------------------|-------------------------|
E|------------------|------------------|------------------------|-------------------------|

e|-5----------------|
b|------------------|
g|------------------|
d|------------------|
a|------------------|
E|------------------|

      G               C           G                   D
    你是不是不願意留下來陪我,  你是不是春天一過就要走開。  
      C                   Bm      Em
    真心的花纔開,  你卻要隨候鳥飛走。
    Am            D
    留下來,  留下來。
      G               C           G                 D
    你爲什麼不願意留下來陪我,  你是不是就這樣輕易放棄。
    C                   Bm      Em
    花開的時候,  就這樣悄悄離開我。
    Am            D
    離開我,  離開我。
    C                   Bm        C                   Bm
    太多太多的話,  我還沒有說,  太多太多牽掛,  值得你留下。
    C                 Bm  Em    Am            D 
    花開的時候,  你卻離開我,  離開我,  離開我。
添加到谱单
X

添加到谱单

《 花祭 -- 齊秦 》加入
◎ 选择已有谱单 创建新的

公开 (默认不公开,欢迎创建有意思的"公开谱单")

创建取消

推荐语(选填)

X

请先登录chord4


忘记密码